Oops, an error
Loading. Please wait.

The World Is Yours Tab

2,205 views 3 this week
no commentswrite comment
1 2 3 4 5
2 more votes to show rating
add to favorites
launch autoscroll
font size
0
reset
how to read this tab
guitar tuner
Autoscroll
slow
fast
+/-
esc
set tempo
stop
Help us to improve Ultimate-Guitar.com Take our survey!
×
Author
Difficulty
novice
Pretty simple song, might not be %100 correct, but sounds pretty good. Enjoy!

Verse:

--------------------------|
--------------------------|
----0---0---0---0---0---0-|
--2---2---2---2---3---3---|
-3-3-3-3-3-3-3-3-5-5-5-5--|
--------------------------|

---------------------------|
---------------------------|
----0---0---0---0---0----0-|
--3---3---5---5---5---5----|
-5-5-5-5-7-7-7-7-7-7-7-7---|
---------------------------|

------------------|
------------------|
----0---0---0---0-|
--7---7---7---7---|
-8-8-8-8-8-8-8-8--|
------------------|

Chorus:

-------------------------|
-------------------------|
---0---0---0---0---0---0-|
-5---5---5---5---7---7---|
7-7-7-7-7-7-7-7-8-8-8-8--|
-------------------------|

--------------------------|
--------------------------|
----0---0---0---0---0---0-|
--7---7---5---5---5---5---|
-8-8-8-8-7-7-7-7-7-7-7-7--|
--------------------------|

------------------|
------------------|
----0---0---0---0-|
--3---3---3---3---|
-5-5-5-5-5-5-5-5--|
------------------|

End the song with a C chord

Lyrics:

This is the song that you throw on
When life is feeling rather long
And you're longing for confidence to make it

And these are the words that make you feel
That all your dreams aren't dreams
But real events that simply haven't taken
place yet

But if you stare high
The sky will come right down and kiss you
If you keep your head towards the stars
They will assist you

The world is yours
The world is yours

This is the time of night
When all the streetlights rub their waking
eyes
The day and night find compromise in dark
blue

This is the magic in the air
That whispers, "You are almost there"
The worries, cares, and daydreamers will
leave soon

But if you stare high
The sky will come right down and kiss you
If you keep your head towards the stars
They will assist you

The world is yours
The world is yours

Well, this is the song that you throw on
When life is feeling rather long
And you're longing for confidence to make it

And these are the words that make you feel
That all your dreams aren't dreams
But real events that simply haven't taken
place yet

But if you stare high
The sky will come right down and kiss you
But if you keep your head towards the stars
They will assist you

The world is yours
The world is yours
What are you waiting for?

The world is yours
The world is yours
Suggest correction
Give kudos to tab author, rate the tab!
1 2 3 4 5
comments
print report bad tab
guest
You may want to rate the tab now too:
select rating
Wanna post a correction for this tab? Suggest correction