Oops, an error
Loading. Please wait.

We Could Be Amazing Chords

version 4
version 4

Whole song

5,765 views 21 this week
no commentswrite comment
1 2 3 4 5
excellent!
x 5
add to favorites
launch autoscroll
font size
0
reset
transpose
0
reset
simplify chords
display chords
guitar tuner
Tab Pro tools
  • play this tab
  • loop segment
  • change instrument
  • show fretboard
  • metronome
×
Best way to learn
"We Could Be Amazing"
Autoscroll
slow
fast
+/-
esc
set tempo
stop
Contributor
Difficulty
novice
INTRO:


    DM7     Em7     A/F#     Em7
  
e|---5---|---7---|---9----|---7---|
B|---7---|---8---|---10---|---8---|
G|---6---|---7---|---9----|---7---|
D|---7---|---9---|---11---|---9---|
A|---5---|---7---|---9----|---7---|
E|---x---|---x---|---x----|---x---|




VERSE:


    DM7     Em7     A/F#      D7
  
e|---5---|---7---|---9----|---5---|
B|---7---|---8---|---10---|---5---|
G|---6---|---7---|---9----|---7---|
D|---7---|---9---|---11---|---5---|
A|---5---|---7---|---9----|---7---|
E|---x---|---x---|---x----|---5---|


DM7           Em7                A/F#       Em7
Dust off your heart and take it for a spin

DM7                Em7             A/F#           Em7
I know it's been a while since love has been

DM7               Em7
Why don't you come outside

A/F#                 Em7
My arms are open wide

DM7              Em7             A/F#    Em7
And I'll be here until you realize

    D7
Realize


CHORUS:
 
    Dmaj7   A/F#*   Em7*    Gmaj7    A7
  
e|---x---|---0---|---x---|---x---|---x---|
B|---3---|---2---|---3---|---3---|---2---|
G|---4---|---2---|---0---|---0---|---0---|
D|---4---|---2---|---0---|---2---|---2---|
A|---x---|---x---|---2---|---0---|---0---|
E|---3---|---2---|---x---|---0---|---0---|


                               Dmaj7
Cause I'll be standing on your doorstep

                    A/F#*
Lie hotter than the sunset

                     Em7*                    
Just take your sweet time babe

             Gmaj7 - A7
I'll let you sleep

                        Dmaj7
Cause the love that I'm holdin'

                           A/F#*
Will still be here in the morning

                     Em7*
I'm just sittin' here hoping

                   Gmaj7 - A7
You'll come down to me


                    (Intro chords)
We could be amazing
We could be amazing



VERSE:

DM7             Em7            A/F#          Em7
You know you're gonna have to trust again

DM7              Em7                    A/F#      Em7
So throw on your shades and stop your worryin'

DM7             Em7
Why don't you come outside

A/F#              Em7
My arms are open wide

DM7          Em7            A/F#           Em7
And I'll be here until you realize

    D7
Realize


CHORUS


BRIDGE:


    Bm7   G#m7/B5  Dmaj7     D7      A7*

e|---x---|---x---|---x---|---5---|---5---|
B|---7---|---3---|---3---|---5---|---5---|
G|---7---|---4---|---4---|---7---|---6---|
D|---7---|---4---|---4---|---5---|---5---|
A|---x---|---x---|---x---|---7---|---7---|
E|---7---|---4---|---3---|---5---|---5---|

Bm7
You've done something right

G#m7/B5

To keep me up all night

Dmaj7                          D7 - A7*
I could wait forever in your smile

Bm7
I will not give in

G#m7/B5
You will love again

Dmaj7                              D7
Open up your heart and say you'll try

            D7
Say you'll try

CHORUS

We could be amazing (x5)
comments
print report bad tab
I want to post or [tab]
guest
You may want to rate the tab now too:
select rating
Please do not post tabs as comments. Select "correction" instead!