Oops, an error
Loading. Please wait.

A Better Way Tab

127 views 27 this week
1 commentread comment
1 2 3 4 5
2 more votes to show rating
add to favorites
launch autoscroll
font size
0
reset
how to read this tab
guitar tuner
Autoscroll
slow
fast
+/-
esc
set tempo
stop
Help us to improve Ultimate-Guitar.com Take our survey!
×
Author
Difficulty
Tuning
intermediate
A# F A# D# G C
[Intro and Verse]

C |---------------------------------------------|---------------------------------------------|
G |---------------------------------------------|---------------------------------------------|
D#|---------------------------------------------|---------------------------------------------|
A#|4-----------4-----------4-----------4-p-2-p-0|9-----------9-----------9-----------9-p-7-p-5|
F |------0-----------0-----------0--------------|------5-----------5-----------5--------------|
A#|0-(0)---(0)-0-(0)---(0)-0-(0)---(0)-0---(0)-0|5-(5)---(5)-5-(5)---(5)-5-(5)---(5)-5---(5)-5|


C |---------------------------------------------|-----------------------------------------------|
G |---------------------------------------------|-----------------------------------------------|
D#|---------------------------------------------|-----------------------------------------------|
A#|4-----------4-----------4-----------4-p-2-p-0|5-----------5-----------5-----------5----------|
F |------0-----------0-----------0--------------|------5-----------5-----------5-----------5----|
A#|0-(0)---(0)-0-(0)---(0)-0-(0)---(0)-0---(0)-0|5-(5)---(5)-5-(5)---(5)-5-(5)---(5)-5-(5)---(5)|

[Chorus]

C |-----------------------------------------------|
G |-----------------------------------------------|
D#|-----------------------------------------------|
A#|7-----------7-----------5-----------5----------|
F |------7-----------7-----------5-----------5----|
A#|7-(7)---(7)-7-(7)---(7)-5-(5)---(5)-5-(5)---(5)|

 

************************************

| p    Pull-off
| (n)  Ghost note 

************************************
Suggest correction
Give kudos to tab author, rate the tab!
1 2 3 4 5
comments
print report bad tab
1 comment total.
0 reply
jackmewis 56 Nov 15, 2016 07:26 PM

Don't know how you figured the tuning out but props.

guest
You may want to rate the tab now too:
select rating
Wanna post a correction for this tab? Suggest correction