Oops, an error
Loading. Please wait.

Aftershock tab

7,648 views 3 this week
1 commentread comment
1 2 3 4 5
x 3
add to favorites
×
Save as Personal and add changes to this tab that will be seen only by you. Learn more ›
×
You can save this tab as Personal to edit and correct it or add notes. All changes will be seen only by you. Learn more »
launch autoscroll
font size
0
reset
how to read this tab
guitar tuner
edit
Autoscroll
slow
fast
+/-
esc
set tempo
stop
Author
the lead parts for the great song Aftershock by Andy James

difficulty : intermediate/advanced

(there are some parts that a beginner could do)

listen to the song for the timing
b = bend
s = slide
v = vibrato
t = tap
p = pull of
h = hammer on
m = mute with left hand
brv = bend release vibrato
brp = bend release pull off
wbp = wait before pulling of
sb = slow bend

I think the tab is at least 98% accurate so i might update it later

intro riff(main riff)

e|----------------------------------------------------|
B|----------------------------------------------------|
G|----------------------------------------------------|
D|--4-----4----------0--------0-------0---7-----------|
A|--2-----2-------4--------4-------4------5-----------|
E|--2-----2----7--------3-------5---------5-----------|

e|----------------------------------------------------|
B|----------------------------------------------------|
G|----------------------------------------------------|
D|--4---4-4----------0--------0-------0---7-----------|
A|--2---2-2-------4--------4-------4------5-----------|
E|--2---2-2----7--------3-------5---------5-----------|

e|----------------------------------------------------|
B|----------------------------------------------------|
G|----------------------------------------------------|
D|--4-----4----------0--------0-------0---7-----------|
A|--2-----2-------4--------4-------4------5-----------|
E|--2-----2----7--------3-------5---------5-----------|

e|----------------------------------------------------|
B|----------------------------------------------------|
G|-----6---6s9-------11---11s14----------16-----------|
D|---4---4-----7---9----9-------12----14--------------|
A|-2-------------7-----------------12-----------------|
E|----------------------------------------------------|

e|----------------------------------------------------|
B|----------------------------------------------------|
G|----------------------------------------------------|
D|--4-----4----------0--------0-------0---7-----------|
A|--2-----2-------4--------4-------4------5-----------|
E|--2-----2----7--------3-------5---------5-----------|

e|----------------------------------------------------|
B|----------------------------------------------------|
G|----------------------------------------------------|
D|--4---4-4----------0--------0-------0---7-----------|
A|--2---2-2-------4--------4-------4------5-----------|
E|--2---2-2----7--------3-------5---------5-----------|

e|----------------------------------------------------|
B|----------------------------------------------------|
G|----------------------------------------------------|
D|--4-----4----------0--------0-------0---7-----------|
A|--2-----2-------4--------4-------4------5-----------|
E|--2-----2----7--------3-------5---------5-----------|

e|----------------------------------------------------|
B|----------------------------------------------------|
G|-----6---6s9-------11---11s14----------16-16r-------|
D|---4---4-----7---9----9-------12----14----14r-------|
A|-2-------------7-----------------12-------12r-------|
E|------------------------------------------------12s1|

first solo

let the notes ring out for the whole solo              full bend here
e|--------------------------------------------------------------------------|
B|---------7s10--5v--7-7v-------2h3p2------------------------------12brv----|
G|--2s4v------------------------------4-2-4s6-----2m-2m-2-2m-4v-------------|
D|---------------------------------------------4----------------------------|
A|--------------------------------------------------------------------------|
E|----------------------------------------------------------------------12s1|
bend the last note and pick it 2 times again
e|--------------------------------------------------------------------------|
B|--------7s10--5v--7-7v-------12s14-10--12-12v--14-0-15-0-17-0-19-19v-22b--|
G|--2s4v--------------------------------------------------------------------|
D|--------------------------------------------------------------------------|
A|--------------------------------------------------------------------------|
E|--------------------------------------------------------------------------|

chorus 1
again,let all notes ring out + bend the last note and pick it 3 times again.
e|----------------------------------------------------------------------------|
B|--10s12v--12s15-14v---14s10-10s7v-7h8p7-------7-7h8v-7-----------10b--------|
G|---------------------------------------9wbp7-9---------9v-9brp7v------------|
D|--------------------------------------------9-------------------------------|
A|----------------------------------------------------------------------------|
E|----------------------------------------------------------------------------|

now comes the extreme alternate picking!
e|-19-15-17-19-17-15----------------15-17-19-17-15---|
B|-------------------19-17-15-17-19------------------|
G|---------------------------------------------------|
D|---------------------------------------------------|
A|---------------------------------------------------|
E|---------------------------------------------------|

e|-17-14-15-17-15-14----------------14-15-17-15-14---|
B|-------------------17-15-14-15-17------------------|
G|---------------------------------------------------|
D|---------------------------------------------------|
A|---------------------------------------------------|
E|---------------------------------------------------|

e|-15-12-14-15-14-12----------------12-14-15-14-12---|
B|-------------------15-14-12-14-15------------------|
G|---------------------------------------------------|
D|---------------------------------------------------|
A|---------------------------------------------------|
E|---------------------------------------------------|

e|-14-10-12-14-12-10----------------10-12-14-12-10---|
B|-------------------14-12-10-12-14------------------|
G|---------------------------------------------------|
D|---------------------------------------------------|
A|---------------------------------------------------|
E|---------------------------------------------------|

e|-13-10-12-13-12-10-------------------------------------------|
B|-------------------13-10-12-13-12-10-------------------------|
G|-------------------------------------12-9-10-12-10-9---------|
D|-------------------------------------------------------------|
A|-------------------------------------------------------------|
E|-------------------------------------------------------------|

e|--------------------------------------------------------------------------|
B|--------------------------------------------------------------------------|
G|--------------------------------------------------------------------------|
D|-12-9-10-12-10-9----------------------------------------------------------|
A|-----------------12-8-10-12-10-8---------------8-10-12---------8-10-12----|
E|---------------------------------12-10-8-10-12---------8-10-12------------|

e|--------------------------------------------------------------------------|
B|--------------------------------------------------------------------------|
G|-----------------------------------------9-10-12---------9-10-12-9-10-12--|
D|---------9-10-12---------9-10-12-9-10-12---------9-10-12------------------|
A|-8-10-12---------8-10-12--------------------------------------------------|
E|--------------------------------------------------------------------------|
                        full bend here
e|--------------------------------------------------------------------------|
B|-10-12-13---------10-12-13-10sb-------------------------------------------|
G|----------9-10-12---------------------------------------------------------|
D|--------------------------------------------------------------------------|
A|--------------------------------------------------------------------------|
E|--------------------------------------------------------------------------|

now back to the main riff

e|----------------------------------------------------|
B|----------------------------------------------------|
G|----------------------------------------------------|
D|--4-----4----------0--------0-------0---7-----------|
A|--2-----2-------4--------4-------4------5-----------|
E|--2-----2----7--------3-------5---------5-----------|

e|----------------------------------------------------|
B|----------------------------------------------------|
G|----------------------------------------------------|
D|--4---4-4----------0--------0-------0---7-----------|
A|--2---2-2-------4--------4-------4------5-----------|
E|--2---2-2----7--------3-------5---------5-----------|

e|----------------------------------------------------|
B|----------------------------------------------------|
G|----------------------------------------------------|
D|--4-----4----------0--------0-------0---7-----------|
A|--2-----2-------4--------4-------4------5-----------|
E|--2-----2----7--------3-------5---------5-----------|

e|----------------------------------------------------|
B|----------------------------------------------------|
G|-----6---6s9-------11---11s14----------16-----------|
D|---4---4-----7---9----9-------12----14--------------|
A|-2-------------7-----------------12-----------------|
E|----------------------------------------------------|

e|----------------------------------------------------|
B|----------------------------------------------------|
G|----------------------------------------------------|
D|--4-----4----------0--------0-------0---7-----------|
A|--2-----2-------4--------4-------4------5-----------|
E|--2-----2----7--------3-------5---------5-----------|

e|----------------------------------------------------|
B|----------------------------------------------------|
G|----------------------------------------------------|
D|--4---4-4----------0--------0-------0---7-----------|
A|--2---2-2-------4--------4-------4------5-----------|
E|--2---2-2----7--------3-------5---------5-----------|

e|----------------------------------------------------|
B|----------------------------------------------------|
G|----------------------------------------------------|
D|--4-----4----------0--------0-------0---7-----------|
A|--2-----2-------4--------4-------4------5-----------|
E|--2-----2----7--------3-------5---------5-----------|

e|----------------------------------------------------|
B|----------------------------------------------------|
G|-----6---6s9-------11---11s14----------16-16r-------|
D|---4---4-----7---9----9-------12----14----14r-------|
A|-2-------------7-----------------12-------12r-------|
E|------------------------------------------------12s1|

second solo(let all notes ring out)
e|--------------------------------------------------------------------------|
B|---------19s22-17v-19-19v--14h15p14---------------------------------------|
G|-14s16v------------------------------16-14-16s18----14-14h16--------------|
D|-------------------------------------------------16----------16p14s12-14--|
A|--------------------------------------------------------------------------|
E|--------------------------------------------------------------------------|

e|-------------------------------------------------------------22p17-19-----|
B|-14-14-14h15p14------------------------------19s22-22-17-19v--------------|
G|----------------16-14-16s18---14m-14-14-16v-------------------------------|
D|---------------------------14---------------------------------------------|
A|--------------------------------------------------------------------------|
E|--------------------------------------------------------------------------|
this part here is played really fast and is really hard
e|---------19h24p19-22--19-----19-------------------------------------------|
B|-19h22h24-----------24--22h24--24p19h22--19-----19------------------------|
G|---------------------------------------23--21h23--23p19h21--19------------|
D|----------------------------------------------------------23--21h23-------|
A|--------------------------------------------------------------------------|
E|--------------------------------------------------------------------------|
                                                     sweep this part here
e|-------------------------------------------------------17h19t24p19p17-----|
B|----------------------------19h22p19-----------------19--------------h19--|
G|-19h23p19--------19h23p19-21--------21p19s18-------18------------------h18|
D|---------21p19h21---------------------------h19--19-----------------------|
A|-----------------------------------------------21-------------------------|
E|--------------------------------------------------------------------------|

e|--------------------------------------|
B|--------------------------------------|
G|--------------------------------------|
D|-h19----------------------------------|
A|----h21p19p17s16h17h19p17p16----------|
E|----------------------------19p17-----|

second chorus
let the first slide notes ring out                       full bend full bend
e|--------------------------------------------------------------------------|
B|-10s12-12s15-15p14-14s10-10s7--7h8p7-------7-7h8-------------7-8-10s15-15b|
G|------------------------------------9wbp7-9------9s11-7----9b-------------|
D|-----------------------------------------9-----------9-9-7----------------|
A|--------------------------------------------------------------------------|
E|--------------------------------------------------------------------------|

e|-12-15s19-15-19-17-15-14-17-15-14-12-15-14-12-10-14-12-10-8-12-10-8-7-10-8|
B|--------------------------------------------------------------------------|
G|--------------------------------------------------------------------------|
D|--------------------------------------------------------------------------|
A|--------------------------------------------------------------------------|
E|--------------------------------------------------------------------------|

e|-7-5-8-7-5----|
B|--------------|
G|--------------|
D|--------------|
A|--------------|
E|--------------|
more extreme alternate picking
e|-19-15-17-19-17-15----------------15-17-19-17-15---|
B|-------------------19-17-15-17-19------------------|
G|---------------------------------------------------|
D|---------------------------------------------------|
A|---------------------------------------------------|
E|---------------------------------------------------|

e|-17-14-15-17-15-14----------------14-15-17-15-14---|
B|-------------------17-15-14-15-17------------------|
G|---------------------------------------------------|
D|---------------------------------------------------|
A|---------------------------------------------------|
E|---------------------------------------------------|

e|-15-12-14-15-14-12----------------12-14-15-14-12---|
B|-------------------15-14-12-14-15------------------|
G|---------------------------------------------------|
D|---------------------------------------------------|
A|---------------------------------------------------|
E|---------------------------------------------------|

e|-14-10-12-14-12-10----------------10-12-14-12-10---|
B|-------------------14-12-10-12-14------------------|
G|---------------------------------------------------|
D|---------------------------------------------------|
A|---------------------------------------------------|
E|---------------------------------------------------|

e|-13-10-12-13-12-10-------------------------------------------|
B|-------------------13-10-12-13-12-10-------------------------|
G|-------------------------------------12-9-10-12-10-9---------|
D|-------------------------------------------------------------|
A|-------------------------------------------------------------|
E|-------------------------------------------------------------|

e|--------------------------------------------------------------------------|
B|--------------------------------------------------------------------------|
G|--------------------------------------------------------------------------|
D|-12-9-10-12-10-9----------------------------------------------------------|
A|-----------------12-8-10-12-10-8---------------8-10-12---------8-10-12----|
E|---------------------------------12-10-8-10-12---------8-10-12------------|

e|--------------------------------------------------------------------------|
B|--------------------------------------------------------------------------|
G|-----------------------------------------9-10-12---------9-10-12-9-10-12--|
D|---------9-10-12---------9-10-12-9-10-12---------9-10-12------------------|
A|-8-10-12---------8-10-12--------------------------------------------------|
E|--------------------------------------------------------------------------|
                 full bends here  (bendreleasebendreleasehigherbendrelease)XD
e|--------------------------------------------------------------------------|
B|-10-12-13---------10-12-13-10sb-------12b---13b-----22brbrhbr--22v--------|
G|----------9-10-12---------------------------------------------------------|
D|--------------------------------------------------------------------------|
A|--------------------------------------------------------------------------|
E|--------------------------------------------------------------------------|
dark riff
e|--------------------------------------------------------------------------|
B|--------------------------------------------------------------------------|
G|--------------------------------------------------------------------------|
D|--4---------7------7----4--4----4---------7----7---4--4-------------------|
A|--2---------5------7----2--2----2---------5----7---2--2---5---------------|
E|--2---------5------7----2--2----2---------5----7---2--2-0---7-5-7---5-7---|

e|--------------------------------------------------------------------------|
B|--------------------------------------------------------------------------|
G|--------------------------------------------------------------------------|
D|--4---------7------7----4--4----4---------7----7---4--4-------------------|
A|--2---------5------7----2--2----2---------5----7---2--2---5---------------|
E|--2---------5------7----2--2----2---------5----7---2--2-0---7-5-7---------|

L2 = LEFT HAND SECOND FINGER
L1 = LEFT HAND FIRST FINGER
R3 = RIGHT HAND THIRD FINGER
R2 = RIGHT HAND SECOND FINGER

now comes the over the neck tapping, if you don't know wat that is look at the 
performance http://www.youtube.com/watch?v=VfK7bz9VfvE&feature=related

e|----10R3--7L2-------------------------------------------------------------|
B|--------------------------------------------------------------------------|
G|--------------------------------------------------------------------------|
D|--------------------------------------------------------------------------|
A|--------------------------------------------------------------------------|
E|--------------------------------------------------------------------------|


IM NOT DONE I WILL FINISH THIS LATER SO DON'T PUT COMMENTS ABOUT NOT DONE

            
            
Suggest correction
Creating personal tab
Creating personal tab
You can edit any tab online and save it as your Personal.

You can edit, replace or remove any tab part or add personal notes – all changes will be seen only by you.

Personal tabs can be accessed anytime from any device, even offline.
Learn more »
Give kudos to tab author, rate the tab!
1 2 3 4 5
comments
print report bad tab
1 comment total.
0 reply
redwindmh 10 Aug 29, 2016 01:09 AM

Fuckin. Amazing.

guest
You may want to rate the tab now too:
select rating
Wanna post a correction for this tab? Suggest correction