Oops, an error
Loading. Please wait.

Africa Tab

version 1
version 1

Solo

Whole song

Interactive

9,475 views 21 this week
no commentswrite comment
1 2 3 4 5
excellent!
x 1
add to favorites
launch autoscroll
font size
0
reset
how to read this tab
guitar tuner
Tab Pro tools
  • play this tab
  • loop segment
  • change instrument
  • show fretboard
  • metronome
Autoscroll
slow
fast
+/-
esc
set tempo
stop
Contributor
Difficulty
intermediate
Song: Africa
Artist: Andy McKee
Album: Dreamcatcher
Tabbed by: JP
Tuning:(lowest to highest pitch) DGDGAD
CAPO 2

This is just the solo part through the end of the song.
The chorus and outro tab are not my work, they were tabbed by suckit69er.
I am just showing that in the last chorus, one of the phrases is repeated.
The solo is tabbed from this video: http://www.youtube.com/watch?v=KHFcg1Bg83w


Solo
d|----------------------2h4p2h4p2----------------------------|
a|-----4p2p0-2p0-----------------4p2--2p0h2h4p2--------------|
g|-----------------------------------------------2~-----4----|
d|---------------4p2----------------------------4---------2~-|
G|--------------------6-----6--6-----------------------------|
D|----7----7--7-----------------------4----4--4---2----2--2--|

d|------0-----------------------------------------------0--|
a|-----0-4p2p0------------------------------------------0--|
g|----0-------0------2-0-------------------4-4--4-4--2--4--|
d|--0----------4p2p0-----4p2p0---7------5--5-5--5-5--4-----|
G|-----------------------------6---6----4---------------4--|
D|--0-----0----------------2---------4--5--5-5--5-5--4-----|

d|----------4p2-----11-9-7-------------0--2---2h0--0---0-------0--|
a|-----2h4p2-----7-------------------4--------0------4---------0--|
g|--4p2----------6-----------------4----------0----------------4--|
d|-------------------------------------------------------------0--|
G|--2--2-2------6--6-6-----------------------------------------4--|
D|------------------------4--4-4--4----4------5------5---5--4-----|

d|--0-0-0-0---0-0-0---0-0-0--000--|
a|--0-0-0-0---0-0-0---0-0-0--000--|
g|--4-4-4-4---4-4-4---4-4-4--444--|
d|--0-0-0-0---0-0-0---0-0-0--000--|
G|--4-4-4-4---4-4-4---4-4-4--444--|
D|--------------------------------|

Last Chorus
d|------5-5-5-5---5-5-----5-5-5-5-5-5-----5-5-4-4----4-----4-4-0-0--|
a|------5-5-5-5---5-5-----5-5-5-5-5-5-----5-5-0-0----0-----0-0-0-0--|
g|-0----0-0-0-0-0-0-0-0-0-0-0-0-0-0-0-0-0-0-0-0-0----0-----0-0-0-0--|
d|-0----0-0-0-0-0-0-0-0-0-0-0-0-0-0-0-0-0-0-0------0-0-0-0-0-0-0-0--|
G|-0----------0-0-5-5-5-5-5-5-5-0-0-0-0-0-0-0------2-2-2-2----------|
D|-0h2---------------------------------------------0-0-0-0----------|

d|------5---5-5-5-5--5-5-5-5-5-5---5-5-----5-4---4---4-----4-4------|
a|------0h2-2-2-2-2--3-3-3-3-3-2---2-2-----2-0---5---5-----5-5------|
g|------0---0-0-0-0--0-0-0-0-0-0-0-0-0-0-0-0-0---0---0-0-0-0-0------|
d|-0----0---0-0-0-0--0-0-0-0-0-0-0-0-0-0-0-0-0-0-0---0-0-0-0-0-0-0--|
G|-0-----------------5-5-5-5-----0-----0-0-----2-------2-2-----2-2--|
D|-0h2-----------------------------------------0-------0-0-----0-0--|

d|-----5-5-5-5-----5--------------5-5----5-5------5-5--4-4--4------4-4--0-0--|
a|-----5-5-5-5-----5-(5)h7-5------5-5----2-2------2-2--0-0--0------0-0--0-0--|
g|-----0-0-0-0-----5--------------5-5----0-0--0-0-0-0--0-0--0--0-0-0-0--0-0--|
d|-0---0-0-0-0--5--5---------5-5--5-5--0-0-0--0-0-0-0--0-0--0--0-0-0-0--0-0--|
G|-0------------5--5---------5-5-------0------0-0--------------2-2-----------|
D|-0h2---------------------------------------------------------0-0-----------|

d|-----5-5-5-5-----5--------------5-5----5-5------5-5--4-4--4------4-4--0-0--|
a|-----5-5-5-5-----5-(5)h7-5------5-5----2-2------2-2--0-0--0------0-0--0-0--|
g|-----0-0-0-0-----5--------------5-5----0-0--0-0-0-0--0-0--0--0-0-0-0--0-0--|
d|-0---0-0-0-0--5--5---------5-5--5-5--0-0-0--0-0-0-0--0-0--0--0-0-0-0--0-0--|
G|-0------------5--5---------5-5-------0------0-0--------------2-2-----------|
D|-0h2---------------------------------------------------------0-0-----------|

d|-----5-5-5-5-----5--------------5-5----5-5------5-5--4-4--4------4-4--0-0--|
a|-----5-5-5-5-----5-(5)h7-5------5-5----2-2------2-2--0-0--0------0-0--0-0--|
g|-----0-0-0-0-----5--------------5-5----0-0--0-0-0-0--0-0--0--0-0-0-0--0-0--|
d|-0---0-0-0-0--5--5---------5-5--5-5--0-0-0--0-0-0-0--0-0--0--0-0-0-0--0-0--|
G|-0------------5--5---------5-5-------0------0-0--------------2-2-----------|
D|-0h2---------------------------------------------------------0-0-----------|

d|------5-5-5-5---5---5---5-5-5-5-5--5-5-5-5-4-4--4-4-4-2h0--4-4-4-5-0-2-2-2--0--|
a|------5-5-5-5---5---5---5-5-5-5-5--5-5-5-5-0-0--0-0-0-0----0-0-0-0-0-0-0-0--0--|
g|------0-0-0-0-0-0---0-0-0-0-0-0-0--0-0-0-0-0-0--0-0-0-0----0-0-0-0-0-0-0-0--0--|
d|-0----0-0-0-0-0-------0---0---0-0--0-0-0-0-0-0--0-0-0-0----0-0-0-----2-2-2--4--|
G|-0------------5-------5---5---5-5--0-0-0-0---4-------------7---------x------x--|
D|-0h2-----------------------------------------------------------------2------4--|

Outro
d|--------------------2h0-------2h0------2h0------2h0---play---|
a|-------------------------2h02-----2h02-----2h02-------this---|
g|------------------4-----------------------------------a-lot--|
d|--5--5--5--55--4---------------------------------------------|
G|------------------4------------------------------------------|
D|--5--5--5--55--4---------------------------------------------|

Hope this helps!
comments
We did not receive enough feedback on this tab! Please rate:
print report bad tab
1 2 3 4 5
I want to post or [tab]
guest
You may want to rate the tab now too:
select rating
Please do not post tabs as comments. Select "correction" instead!