Oops, an error
Loading. Please wait.

All Laid Back And Stuff tab

version 1
version 1

Whole song

Interactive

37,001 views 24 this week
4 commentsread comments
1 2 3 4 5
x 9
add to favorites
×
Save as Personal and add changes to this tab that will be seen only by you. Learn more ›
×
You can save this tab as Personal to edit and correct it or add notes. All changes will be seen only by you. Learn more »
launch autoscroll
font size
0
reset
how to read this tab
guitar tuner
edit
Autoscroll
slow
fast
+/-
esc
set tempo
stop
Author
Difficulty
Tuning (low to high):CGDGAD

I can't take 100% credit for this tab, I merely refined it in places.

Let me know if there is anything wrong in the comments, or send me a message. I'll try 
fix it ASAP.

D||--4h5p4p0---0--------------------------|
A||*--------5-------5p0-------------------|
G||---------------------4/2p0h2-----2p0---|
D||---------------------------------------|
G||*-0----------x-0-------------x---------|
C||-------------x-------0-------x-0-------|

  |--5p4---0---5h7p0-4---5p4/2p0----------|
  |------5--------------------------------|
  |---------------------------------------|
  |---------------------------------------|
  |--0-------x----------------------------|
  |----------x-------0--------------------|

  |--5p4---0------------------------------|
  |------5-------5p0----------------------|
  |------------------4/2p0h2-----2p0------|
  |---------------------------------------|
  |--0-------x-0-------------x------------|
  |----------x-------0-------x-0----------|

  |--5p4---0---7h9p0----------------------|
  |------5-----------7----9p7/5p0---------|
  |---------------------------------------|
  |---------------------------------------|
  |--0-------x----------------------------|
  |----------x-------0--------------------|

  |--4p0---0-----5p0--------------NH------|
  |------5--------------------NH---5-NH---|
  |-----------------------NH---5------5---|
  |-------------------NH---5--------------|
  |----------x---------5------------------|
  |--4-------x-4-----0--------------------|


  |--4p0---0------------------------------|
  |------5-------5p0--------------0------*|
  |----------------------------0----------|
  |-----------------------0h4-------------|
  |----------x---------------------------*|
  |--4-------x-4-----0h2------------------|

  |------7-----4----9----7------12--------|
  |----5-----2----7----5-----10-----------|
  |---------------------------------------|
  |---------------------------------------|
  |---------------------------------------|
  |--0-------0------0------0--------------|

  |---0-----------------0-----------------|
  |-----12--------12---------12-----------|
  |--------11--------11------------11-----|
  |---------------------------------------|
  |--11-------------------11--------------|
  |------------11---------------------11--|

  |-------0-------------------0-----------|
  |--10-----10-------9------0----0--------|
  |-----9--------9-------9----------9-----|
  |---------------------------------------|
  |---9------------------------7----------|
  |------------9------7-------------------|

  |------7-----4--------------4---|------7-----4--------------0----|
  |----5-----2------------0-------|----5-----2------------0-------0|
  |-------------------0h2--------0|-------------------0h2----------|
  |---------------0h4-------------|---------------0h4-----------0--|
  |-------------------------------|--------------------------------|
  |--0-------0------0-------0-----|--0-------0------0-------0------|


  |------7-----4--------------0----|------7-----4--------------0----|
  |----5-----2------------0-------0|----5-----2------------0-------0|
  |-------------------0h2----------|-------------------0h2----------|
  |---------------0h4-----------0--|---------------0h4-----------4--|
  |--------------------------------|--------------------------------|
  |--0-------0--------------0------|--0-------0------0-------0------|


  |--4h5p4p0---0--------------------------|
  |--------5-------5p0--------------------|
  |--------------------4/2p0h2-----2p0----|
  |---------------------------------------|
  |--0---------x-0-------------x----------|
  |------------x-------0-------x-0--------|

  |--5p4---0---5h7p0-4---5p4/2p0----------|
  |------5--------------------------------|
  |---------------------------------------|
  |---------------------------------------|
  |--0-------x----------------------------|
  |----------x-------0--------------------|

  |--5p4---0------------------------------|
  |------5-------5p0----------------------|
  |------------------4/2p0h2-----2p0------|
  |---------------------------------------|
  |--0-------x-0-------------x------------|
  |----------x-------0-------x-0----------|


  |--5p4---0---7h9p0----------------------|
  |------5-----------7----9p7/5p0---------|
  |---------------------------------------|
  |---------------------------------------|
  |--0-------x----------------------------|
  |----------x-------0--------------------|

  |--4p0---0-----5p0--------------NH------|
  |------5--------------------NH---5-NH---|
  |-----------------------NH---5------5---|
  |-------------------NH---5--------------|
  |----------x---------5------------------|
  |--4-------x-4-----0--------------------|

                                      NH
  |--4p0---0-----5p0--------------NH---5--|
  |------5--------------------NH---5------|
  |-----------------------NH---5----------|
  |-------------------NH---5--------------|
  |----------x---------5------------------|
  |--4-------x-4-----0--------------------|

  |--4p0---0-----5p0--------------NH------|
  |------5--------------------NH---5-NH---|
  |-----------------------NH---5------5---|
  |-------------------NH---5--------------|
  |----------x---------5------------------|
  |--4-------x-4-----0--------------------|

  |--4p0---0------------------------------|
  |------5-------5p0--------------0-------|
  |----------------------------0----------|
  |-----------------------0h4-------------|
  |----------x----------------------------|
  |--4-------x-4-----0h2------------------|

  |------7-----4----9----7------12--------|
  |----5-----2----7----5-----10-----------|
  |---------------------------------------|
  |---------------------------------------|
  |---------------------------------------|
  |--0-------0------0------0--------------|

  |---0-----------------0-----------------|
  |-----12--------12---------12-----------|
  |--------11--------11------------11-11--|
  |---------------------------------------|
  |--11-------------------11--------------|
  |------------11---------------------11--|

  |-------0-------------------0-----------|
  |--10-----10-------9------0----0--------|
  |-----9--------9-------9----------9-----|
  |---------------------------------------|
  |---9------------------------7----------|
  |------------9------7-------------------|

  |------7-----4--------------0----|------7-----4--------------0----|
  |----5-----2------------0-------0|----5-----2------------0-------0|
  |-------------------0h2----------|-------------------0h2----------|
  |---------------0h4-----------4--|---------------0h4-----------4--|
  |--------------------------------|--------------------------------|
  |--0-------0------------0--------|--0-------0------0-------0------|

  |------7-----4--------------0----|------7-----4--------------0----|
  |----5-----2-------------0------0|----5-----2------------0-------0|
  |-------------------0h2----------|-------------------0h2----------|
  |---------------0h4-----------4--|---------------0h4-----------4--|
  |--------------------------------|--------------------------------|
  |--0-------0------------0--------|--0-------0------0-------0------|

  |--5p4---0-----------------------------|
  |------5-------5p0---------------------|
  |------------------4/2p0h2-----2p0-----|
  |--------------------------------------|
  |--0-------x-0-------------x-----------|
  |----------x-------0-------x-0-0-------|

  |--5p4---0---5h7p0-4---5p4/2p0---------|
  |------5-------------------------------|
  |--------------------------------------|
  |--------------------------------------|
  |--0-------x---------------------------|
  |----------x-------0-------------------|

  |--5p4---0-----------------------------|
  |------5-------5p0---------------------|
  |------------------4/2p0h2-----2p0-----|
  |--------------------------------------|
  |--0-------x-0-------------x-----------|
  |----------x-------0-------x-0---------|

  |--5p4---0---7h9p0---------------------|
  |------5-----------7----9p7/5p0--------|
  |--------------------------------------|
  |--------------------------------------|
  |--0-------x---------------------------|
  |----------x-------0-------------------|

  |--4p0---0-----5p0--------------NH-----|
  |------5--------------------NH---5-NH--|
  |-----------------------NH---5------5--|
  |-------------------NH---5-------------|
  |----------x---------5-----------------|
  |--4-------x-4-----0-------------------|

                                      NH
  |--4p0---0-----5p0--------------NH---5-|
  |------5--------------------NH---5-----|
  |-----------------------NH---5---------|
  |-------------------NH---5-------------|
  |----------x---------5-----------------|
  |--4-------x-4-----0-------------------|

  |--4p0---0-----5p0--------------NH-----|
  |------5--------------------NH---5-NH--|
  |-----------------------NH---5------5--|
  |-------------------NH---5-------------|
  |----------x---------5-----------------|
  |--4-------x-4-----0-------------------|

  |--4p0---0-----------------------------|--4--||
  |------5-------5p0--------------0------|-----||
  |----------------------------0---------|--0--||
  |-----------------------0h4------------|-----||
  |----------x---------------------------|--0--||
  |--4-------x-4-----0h2-----------------|-----||

            
            
Suggest correction
Creating personal tab
Creating personal tab
You can edit any tab online and save it as your Personal.

You can edit, replace or remove any tab part or add personal notes – all changes will be seen only by you.

Personal tabs can be accessed anytime from any device, even offline.
Learn more »
comments
print report bad tab
4 comments total. Showing first comments.
0 reply
dudesrock666 21 Jul 13, 2011 07:03 AM

Are you sure this bit's right?

|-------0--------------------0---------|
|--10--------10---9--------------0-----|
|-----9---------9-------9-----------9--|
|--------------------------7-----------|
|---9--------------------------7-------|
|---------9----------7-----------------|

It doesn't sound right to me and I can't make it fit with his left hand in the youtube video..? Maybe I'm just not getting it?

0 reply
dudesrock666 21 Jul 13, 2011 07:04 AM

Scrap that, I take it all back. Just needs a bit of working on :P

+2 reply
dudesrock666 21 Jul 13, 2011 07:48 AM

No no, I rescind that, I got it to be:

|-------0-------------------0--------|
|--10-----10-------9------0----0-----|
|-----9--------9-------9----------9--|
|------------------------------------|
|---9------------------------7-------|
|------------9------7----------------|

Brilliant tab by the way, I'm being nitpicky here and I've been waiting for this tab for ages! Thanks :D

guest
You may want to rate the tab now too:
select rating
Wanna post a correction for this tab? Suggest correction