Oops, an error
Loading. Please wait.

Common Ground tab

version 2
version 2

Whole song

Interactive

52 views 3 this week
no commentswrite comment
1 2 3 4 5
3 more votes to show rating
add to favorites
×
Save as Personal and add changes to this tab that will be seen only by you. Learn more ›
×
You can save this tab as Personal to edit and correct it or add notes. All changes will be seen only by you. Learn more »
launch autoscroll
font size
0
reset
how to read this tab
guitar tuner
edit
Autoscroll
slow
fast
+/-
esc
set tempo
stop
ANDY MCKEE – COMMON GROUND
https://www.youtube.com/watch?v=P4tcFHQJHcA - Tabbed from this version

Tuning - Drop D - DADGBe
  
(0:00)    ttt         ttt                 ttt         ttt                    
e |-------------------------------|-------------------------------|
B |---3-----3-----3-----3-----3---|---3-----3-----3-----3-----3---|
G |---2----2------2----2------2---|---2----2------2----2------2---|
D |---0---0-------0---0-------0---|---0---0-------0---0-------0---|
A |-----------3-----------3-------|-----------3-----------3-------|
D 0-------------------------------0-------------------------------|
  1 e + a 2 e + a 3 e + a 4 e + a 1 e + a 2 e + a 3 e + a 4 e + a

          ttt         ttt                 ttt         ttt                    
e |-------------------------------|-------------------------------|
B |---3-----3-----3-----3-----3---|---3-----3-----3-----3-----3---|
G |---2----2------2----2------2---|---2----2------2----2------2---|
D |---0---0-------0---0-------0---|---0---0-------0---0-------0---|
A |-----------3-----------3-------|-----------3-----------3-------|
D 0-------------------------------0-------------------------------|
  1 e + a 2 e + a 3 e + a 4 e + a 1 e + a 2 e + a 3 e + a 4 e + a 

(0:07)       t           t                   t    t t    t   t   t
e |---/10----------------8--------|----------5----1p0------------3|
B |---/10---10---10-----10----6---|---6------------------3---1----|
G |---/10---------9---------------|---7---------------------------|
D |---0-------0-------0-------0---|---0-------0-------0-------0---|
A |-------------------------------|-------------------------------|
D 0-------0-------0-------0-------0-------0-------0-------0-------|
  1 e + a 2 e + a 3 e + a 4 e + a 1 e + a 2 e + a 3 e + a 4 e + a 

             t           t               t               t           
e |---/10----------------8-------10-----10----8-----------8-------|
B |---/10---10---10-----10-------10-----10----8-----------8--10---|
G |---/10---------9--------------10-----------9----------9---10---|
D |---0-------0-------0-------0---|---8-------0-------0-------0---|
A |-------------------------------|-------0-------0-------0-------|
D 0-------0-------0-------0-------8-------------------------------|
  1 e + a 2 e + a 3 e + a 4 e + a 1 e + a 2 e + a 3 e + a 4 e + a 

(0:15)                                            t t    t   t   t            
e |--10------12---------------8---|--------8------1p0-------------|
B |--10-----13---13---------10---10----------------------3---1---3|
G |--10----12--------12-----9-----|---9---------------------------|
D |---0-------0-------0-------0---|---0-------0-------0-------0---|
A |-------------------------------|-------------------------------|
D 0-------0-------0-------0-------0-------0-------0-------0-------|
  1 e + a 2 e + a 3 e + a 4 e + a 1 e + a 2 e + a 3 e + a 4 e + a 

                                                                    
e |---------1-----3p1-------------|---0---------------------------|
B |--(3b)---------------3---1-----1----------(3b)-----------3-----|
G |---2---------2---------------2-|-----------0---------0---------|
D |---0-------0-------0-------0---|---2------(3b)-----3-------3---|
A |-------------------------------0-------0-------1-------1-------|
D 0-------0-------0-------0-------|-------------------------------|
  1 e + a 2 e + a 3 e + a 4 e + a 1 e + a 2 e + a 3 e + a 4 e + a 

(0:22)                    *No note is played, /=slide up string                                         
e |---------------0-----------0---|---1-p-0---------------0-------|
B |-------3/5---------5-----------|-----------1---------------3---|
G |-----------0-------------------|-------------------------------|
D |---3-------5-------5---/*------|---0-------0-------2-------3---|
A 1-------1/3-----3-------/*------|---------------0-------0-------|
D |-------------------------------0-------0-----------------------|
  1 e + a 2 e + a 3 e + a 4 e + a 1 e + a 2 e + a 3 e + a 4 e + a 

                                                                    
e |---0---------------0-------0---|---1-p-1---------------0-------|
B |-------3-------5---------------|-----------1---------------3---|
G |-------------------------------|-------------------------------|
D |---3-------3-------3---/*------|---0-------0-------2-------3---|
A 1-------1-------3-------/*------|---------------0-------0-------|
D |-------------------------------0-------0-----------------------|
  1 e + a 2 e + a 3 e + a 4 e + a 1 e + a 2 e + a 3 e + a 4 e + a 

                                                        
e |---0---------------0-----------|
B |-------3-------5-----------3---|
G |---------------------------2---|
D |---3-------3-------3---/*------|
A 1-------1-------3-------/*------|
D |-------------------------------|
  1 e + a 2 e + a 3 e + a 4 e + a 
                                                                    
(0:30)    ttt         ttt                 ttt         ttt                    
e |-------------------------------|-------------------------------|
B |---3-----3-----3-----3-----3---|---3-----3-----3-----3-----3---|
G |---2----2------2----2------2---|---2----2------2----2------2---|
D |---0---0-------0---0-------0---|---0---0-------0---0-------0---|
A |-----------3-----------3-------|-----------3-----------3-------|
D 0-------------------------------0-------------------------------|
  1 e + a 2 e + a 3 e + a 4 e + a 1 e + a 2 e + a 3 e + a 4 e + a 

          ttt         ttt                 ttt         ttt                    
e |-------------------------------|-------------------------------|
B |---3-----3-----3-----3-----3---|---3-----3-----3-----3-----3---|
G |---2----2------2----2------2---|---2----2------2----2------2---|
D |---0---0-------0---0-------0---|---0---0-------0---0-------0---|
A |-----------3-----------3-------|-----------3-----------3-------|
D 0-------------------------------0-------------------------------|
  1 e + a 2 e + a 3 e + a 4 e + a 1 e + a 2 e + a 3 e + a 4 e + a 

(0:38)       t           t                   t    t t    t   t   t
e |---/10----------------8--------|----------5----1p0------------3|
B |---/10---10---10-----10----6---|---6------------------3---1----|
G |---/10---------9---------------|---7---------------------------|
D |---0-------0-------0-------0---|---0-------0-------0-------0---|
A |-------------------------------|-------------------------------|
D 0-------0-------0-------0-------0-------0-------0-------0-------|
  1 e + a 2 e + a 3 e + a 4 e + a 1 e + a 2 e + a 3 e + a 4 e + a 

             t           t               t               t           
e |---/10----------------8-------10-----10----8-----------8-------|
B |---/10---10---10-----10-------10-----10----8-----------8--10---|
G |---/10---------9--------------10-----------9----------9---10---|
D |---0-------0-------0-------0---|---8-------0-------0-------0---|
A |-------------------------------|-------0-------0-------0-------|
D 0-------0-------0-------0-------8-------------------------------|
  1 e + a 2 e + a 3 e + a 4 e + a 1 e + a 2 e + a 3 e + a 4 e + a 

(0:45)                                            t t    t   t   t            
e |--10------12---------------8---|--------8------1p0-------------|
B |--10-----13---13---------10---10----------------------3---1---3|
G |--10----12--------12-----9-----|---9---------------------------|
D |---0-------0-------0-------0---|---0-------0-------0-------0---|
A |-------------------------------|-------------------------------|
D 0-------0-------0-------0-------0-------0-------0-------0-------|
  1 e + a 2 e + a 3 e + a 4 e + a 1 e + a 2 e + a 3 e + a 4 e + a 

                                                                    
e |---------1-----3p1-------------|---0---------------------------|
B |--(3b)---------------3---1-----1----------(3b)-----------3-----|
G |---2---------2---------------2-|-----------0---------0---------|
D |---0-------0-------0-------0---|---2------(3b)-----3-------3---|
A |-------------------------------0-------0-------1-------1-------|
D 0-------0-------0-------0-------|-------------------------------|
  1 e + a 2 e + a 3 e + a 4 e + a 1 e + a 2 e + a 3 e + a 4 e + a 

(0:52)                                                                  
e |---------------0-----------0---|---1-p-0---------------0-------|
B |-------3/5---------5-----------|-----------1---------------3---|
G |-----------0-------------------|-------------------------------|
D |---3-------5-------5---/*------|---0-------0-------2-------3---|
A 1-------1/3-----3-------/*------|---------------0-------0-------|
D |-------------------------------0-------0-----------------------|
  1 e + a 2 e + a 3 e + a 4 e + a 1 e + a 2 e + a 3 e + a 4 e + a 

                                                                    
e |---0---------------0-------0---|---1-p-1---------------0-------|
B |-------3-------5---------------|-----------1---------------3---|
G |-------------------------------|-------------------------------|
D |---3-------3-------3---/*------|---0-------0-------2-------3---|
A 1-------1-------3-------/*------|---------------0-------0-------|
D |-------------------------------0-------0-----------------------|
  1 e + a 2 e + a 3 e + a 4 e + a 1 e + a 2 e + a 3 e + a 4 e + a 

                                                                    
e |---0---------------0-----------|
B |-------3-------5----------10---|
G |-------------------------------|
D |---3-------3-------3---/*-10---|
A 1-------1-------3-------/*------|
D |-------------------------------|
  1 e + a 2 e + a 3 e + a 4 e + a 1 

(1:01)                                                                    
e |---------------0---------------|---------------0---------------|
B |--------10--------10--------10-|--------10--------10--------10-|
G |-----0-------0-----------0-----|-----0-------0-----------0-----|
D |--10------10------10------10---|--10------10------10------10---|
A 8-------8-------8-------8-------8-------8-------8-------8-------|
D |-------------------------------|-------------------------------|
  1 e + a 2 e + a 3 e + a 4 e + a 1 e + a 2 e + a 3 e + a 4 e + a 

                                                                    
e |---------------0---------------0---------------0---------------|
B |----12--------12--------------13---------------8----------10---|
G |----0----------0---------------|---------------0---------------|
D |--12------12------12------12---|--14------14-------9------10---|
A10------10------10------10------12------12-------7-------7-------|
D |-------------------------------|-------------------------------|
  1 e + a 2 e + a 3 e + a 4 e + a 1 e + a 2 e + a 3 e + a 4 e + a 

(1:08)                                                                    
e |---------------0---------------|---------------0---------------|
B |--------10--------10--------10-|--------10--------10--------10-|
G |-----0-------0-----------0-----|-----0-------0-----------0-----|
D |--10------10------10------10---|--10------10------10------10---|
A 8-------8-------8-------8-------8-------8-------8-------8-------|
D |-------------------------------|-------------------------------|
  1 e + a 2 e + a 3 e + a 4 e + a 1 e + a 2 e + a 3 e + a 4 e + a 

                                                              u
e |---------------0---------------0--------------10---------------|
B |----12--------12--------------13---------------8---------------|
G |----0----------0---------------|---------------0-----------0---|
D |--12------12--------------12---|--14------14-------9-------0---|
A10------10------10------10------12------12-------7-------x---0---|
D |-------------------------------|---------------------------0---|
  1 e + a 2 e + a 3 e + a 4 e + a 1 e + a 2 e + a 3 e + a 4 e + a 

(1:15)            B       B       B               B       B                     
e |-------0---0---0---0---0---0---0---0---0---0---0---0---0---0---|
B |---1---1---1---1---0---1---1---1---0---1---1---1---0---1---0---|
G |-------0---0---0---0---0---0---0---0---0---0---0---0---0---0---|
D 3-------3---3---3---3---3---3---3---3---3---3---3---3---3---5---|
A 3-------3---3---3---3---3---3---3---3---3---3---3---3---3---5---|
D 3-------3---3---3---3---3---3---3---3---3---3---3---3---3---5---|
  1-e-+-a-2-e-+-a-3-e-+-a-4-e-+-a-1-e-+-a-2-e-+-a-3-e-+-a-4-e-+-a-
                                                           
  B               B       B       B       B       B       B  
e 0---0---0---0---0---0---0---3---3---3-------0---0---0-------0---|
B 3---3---3---3---3---0---3---1---1---1-------0---0---0-------0---|
G 0---0---0---0---0---0---0---0---0---0-------0---0---0-------0---|
D 5---5---5---5---5---5---5---2---2---2-------2---2---2-------3---|
A 5---5---5---5---5---5---5---0---0---0-------2---2---2-------3---|
D 5---5---5---5---5---5---5-------|-------X---2---2---2---X---3---|
  1-e-+-a-2-e-+-a-3-e-+-a-4-e-+-a-1-e-+-a-2-e-+-a-3-e-+-a-4-e-+-a-

(1:22)            B       B       B               B       B                     
e |-------0---0---0---0---0---0---0---0---0---0---0---0---0---0---|
B |---1---1---1---1---0---1---1---1---0---1---1---1---0---1---0---|
G |-------0---0---0---0---0---0---0---0---0---0---0---0---0---0---|
D |-------3---3---3---3---3---3---3---3---3---3---3---3---3---5---|
A |-------3---3---3---3---3---3---3---3---3---3---3---3---3---5---|
D |-------3---3---3---3---3---3---3---3---3---3---3---3---3---5---|
  1-e-+-a-2-e-+-a-3-e-+-a-4-e-+-a-1-e-+-a-2-e-+-a-3-e-+-a-4-e-+-a-

  B               B       B       B       B       B       B  
e 0---0---0---0---0---0---0---3---3---3-------0---0---0-----------|
B 3---3---3---3---3---0---3---1---1---1-------0---0---0-------3---|
G 0---0---0---0---0---0---0---0---0---0-------0---0---0-------2---|
D 5---5---5---5---5---5---5---2---2---2-------2---2---2-------0---|
A 5---5---5---5---5---5---5---0---0---0-------2---2---2-----------|
D 5---5---5---5---5---5---5-------|-------X---2---2---2---X-------|
  1-e-+-a-2-e-+-a-3-e-+-a-4-e-+-a-1-e-+-a-2-e-+-a-3-e-+-a-4-e-+-a-

(1:30)    ttt         ttt                 ttt         ttt                    
e |-------------------------------|-------------------------------|
B |---3-----3-----3-----3-----3---|---3-----3-----3-----3-----3---|
G |---2----2------2----2------2---|---2----2------2----2------2---|
D |---0---0-------0---0-------0---|---0---0-------0---0-------0---|
A |-----------3-----------3-------|-----------3-----------3-------|
D 0-------------------------------0-------------------------------|
  1 e + a 2 e + a 3 e + a 4 e + a 1 e + a 2 e + a 3 e + a 4 e + a

          ttt         ttt                 ttt     ttt     ttt               
e |-------------------------------|-------------------------------|
B |---3-----3-----3-----3-----3---|---3-----3---------------------|
G |---2----2------2----2------2---|---2----2----------------------|
D |---0---0-------0---0-------0---|---0---0-------320-------------|
A |-----------3-----------3-------|-----------3-------0---320-----|
D 0-------------------------------0---------------------------3---|
  1 e + a 2 e + a 3 e + a 4 e + a 1 e + a 2 e + a 3 e + a 4 e + a 

(1:37)       t           t                   t    t t    t   t   t
e |---/10----------------8--------|----------5----1p0------------3|
B |---/10---10---10-----10----6---|---6------------------3---1----|
G |---/10---------9---------------|---7---------------------------|
D |---0-------0-------0-------0---|---0-------0-------0-------0---|
A |-------------------------------|-------------------------------|
D 0-------0-------0-------0-------0-------0-------0-------0-------|
  1 e + a 2 e + a 3 e + a 4 e + a 1 e + a 2 e + a 3 e + a 4 e + a 

             t           t               t               t           
e |---/10----------------8-------10-----10----8-----------8-------|
B |---/10---10---10-----10-------10-----10----8-----------8--10---|
G |---/10---------9--------------10-----------9----------9---10---|
D |---0-------0-------0-------0---|---8-------0-------0-------0---|
A |-------------------------------|-------0-------0-------0-------|
D 0-------0-------0-------0-------8-------------------------------|
  1 e + a 2 e + a 3 e + a 4 e + a 1 e + a 2 e + a 3 e + a 4 e + a 

(1:44)                                            t t    t   t   t            
e |--10------12---------------8---|--------8------1p0-------------|
B |--10-----13---13---------10---10----------------------3---1---3|
G |--10----12--------12-----9-----|---9---------------------------|
D |---0-------0-------0-------0---|---0-------0-------0-------0---|
A |-------------------------------|-------------------------------|
D 0-------0-------0-------0-------0-------0-------0-------0-------|
  1 e + a 2 e + a 3 e + a 4 e + a 1 e + a 2 e + a 3 e + a 4 e + a 

                                                                    
e |---------1-----3p1-------------|---0---------------------------|
B |--(3b)---------------3---1-----1----------(3b)-----------3-----|
G |---2---------2---------------2-|-----------0---------0---------|
D |---0-------0-------0-------0---|---2------(3b)-----3-------3---|
A |-------------------------------0-------0-------1-------1-------|
D 0-------0-------0-------0-------|-------------------------------|
  1 e + a 2 e + a 3 e + a 4 e + a 1 e + a 2 e + a 3 e + a 4 e + a 

(1:51)                                                                  
e |---------------0-----------0---|---1-p-0---------------0-------|
B |-------3/5---------5-----------|-----------1---------------3---|
G |-----------0-------------------|-------------------------------|
D |---3-------5-------5---/*------|---0-------0-------2-------3---|
A 1-------1/3-----3-------/*------|---------------0-------0-------|
D |-------------------------------0-------0-----------------------|
  1 e + a 2 e + a 3 e + a 4 e + a 1 e + a 2 e + a 3 e + a 4 e + a 

                                                                    
e |---0---------------0-------0---|---1-p-1---------------0-------|
B |-------3-------5---------------|-----------1---------------3---|
G |-------------------------------|-------------------------------|
D |---3-------3-------3---/*------|---0-------0-------2-------3---|
A 1-------1-------3-------/*------|---------------0-------0-------|
D |-------------------------------0-------0-----------------------|
  1 e + a 2 e + a 3 e + a 4 e + a 1 e + a 2 e + a 3 e + a 4 e + a 

                                                                    
e |---0---------------0-----------|
B |-------3-------5----------10---|
G |-------------------------------|
D |---3-------3-------3---/*-10---|
A 1-------1-------3-------/*------|
D |-------------------------------|
  1 e + a 2 e + a 3 e + a 4 e + a 1 

(2:00)                                                                    
e |---------------0---------------|---------------0---------------|
B |--------10--------10--------10-|--------10--------10--------10-|
G |-----0-------0-----------0-----|-----0-------0-----------0-----|
D |--10------10------10------10---|--10------10------10------10---|
A 8-------8-------8-------8-------8-------8-------8-------8-------|
D |-------------------------------|-------------------------------|
  1 e + a 2 e + a 3 e + a 4 e + a 1 e + a 2 e + a 3 e + a 4 e + a 

                                                                    
e |---------------0---------------0---------------0---------------|
B |----12--------12--------------13---------------8----------10---|
G |----0----------0---------------|---------------0---------------|
D |--12------12------12------12---|--14------14-------9------10---|
A10------10------10------10------12------12-------7-------7-------|
D |-------------------------------|-------------------------------|
  1 e + a 2 e + a 3 e + a 4 e + a 1 e + a 2 e + a 3 e + a 4 e + a 

(2:07)                                                                    
e |---------------0---------------|---------------0---------------|
B |--------10--------10--------10-|--------10--------10--------10-|
G |-----0-------0-----------0-----|-----0-------0-----------0-----|
D |--10------10------10------10---|--10------10------10------10---|
A 8-------8-------8-------8-------8-------8-------8-------8-------|
D |-------------------------------|-------------------------------|
  1 e + a 2 e + a 3 e + a 4 e + a 1 e + a 2 e + a 3 e + a 4 e + a 

                                                              u
e |---------------0---------------0--------------10---------------|
B |----12--------12--------------13---------------8---------------|
G |----0----------0---------------|---------------0-----------0---|
D |--12------12--------------12---|--14------14-------9-------0---|
A10------10------10------10------12------12-------7-------x---0---|
D |-------------------------------|---------------------------0---|
  1 e + a 2 e + a 3 e + a 4 e + a 1 e + a 2 e + a 3 e + a 4 e + a 

(2:14)            B       B       B               B       B                     
e |-------0---0---0---0---0---0---0---0---0---0---0---0---0---0---|
B |---1---1---1---1---0---1---1---1---0---1---1---1---0---1---0---|
G |-------0---0---0---0---0---0---0---0---0---0---0---0---0---0---|
D 3-------3---3---3---3---3---3---3---3---3---3---3---3---3---5---|
A 3-------3---3---3---3---3---3---3---3---3---3---3---3---3---5---|
D 3-------3---3---3---3---3---3---3---3---3---3---3---3---3---5---|
  1-e-+-a-2-e-+-a-3-e-+-a-4-e-+-a-1-e-+-a-2-e-+-a-3-e-+-a-4-e-+-a-
                                                           
  B               B       B       B       B       B       B  
e 0---0---0---0---0---0---0---3---3---3-------0---0---0-------0---|
B 3---3---3---3---3---0---3---1---1---1-------0---0---0-------0---|
G 0---0---0---0---0---0---0---0---0---0-------0---0---0-------0---|
D 5---5---5---5---5---5---5---2---2---2-------2---2---2-------3---|
A 5---5---5---5---5---5---5---0---0---0-------2---2---2-------3---|
D 5---5---5---5---5---5---5-------|-------X---2---2---2---X---3---|
  1-e-+-a-2-e-+-a-3-e-+-a-4-e-+-a-1-e-+-a-2-e-+-a-3-e-+-a-4-e-+-a-

(2:21)            B       B       B               B       B                     
e |-------0---0---0---0---0---0---0---0---0---0---0---0---0---0---|
B |---1---1---1---1---0---1---1---1---0---1---1---1---0---1---0---|
G |-------0---0---0---0---0---0---0---0---0---0---0---0---0---0---|
D |-------3---3---3---3---3---3---3---3---3---3---3---3---3---5---|
A |-------3---3---3---3---3---3---3---3---3---3---3---3---3---5---|
D |-------3---3---3---3---3---3---3---3---3---3---3---3---3---5---|
  1-e-+-a-2-e-+-a-3-e-+-a-4-e-+-a-1-e-+-a-2-e-+-a-3-e-+-a-4-e-+-a-

  B               B       B       B       B       B       B  
e 0---0---0---0---0---0---0---3---3---3-------0---0---0-------0---|
B 3---3---3---3---3---0---3---1---1---1-------0---0---0-------0---|
G 0---0---0---0---0---0---0---0---0---0-------0---0---0-------0---|
D 5---5---5---5---5---5---5---2---2---2-------2---2---2-------3---|
A 5---5---5---5---5---5---5---0---0---0-------2---2---2-------3---|
D 5---5---5---5---5---5---5-------|-------X---2---2---2---X---3---|
  1-e-+-a-2-e-+-a-3-e-+-a-4-e-+-a-1-e-+-a-2-e-+-a-3-e-+-a-4-e-+-a-

(2:28)            B       B       B               B       B                     
e |-------0---0---0---0---0---0---0---0---0---0---0---0---0---0---|
B |---1---1---1---1---0---1---1---1---0---1---1---1---0---1---0---|
G |-------0---0---0---0---0---0---0---0---0---0---0---0---0---0---|
D 3-------3---3---3---3---3---3---3---3---3---3---3---3---3---5---|
A 3-------3---3---3---3---3---3---3---3---3---3---3---3---3---5---|
D 3-------3---3---3---3---3---3---3---3---3---3---3---3---3---5---|
  1-e-+-a-2-e-+-a-3-e-+-a-4-e-+-a-1-e-+-a-2-e-+-a-3-e-+-a-4-e-+-a-
                                                           
  B               B       B       B       B       B       B  
e 0---0---0---0---0---0---0---3---3---3-------0---0---0-------0---|
B 3---3---3---3---3---0---3---1---1---1-------0---0---0-------0---|
G 0---0---0---0---0---0---0---0---0---0-------0---0---0-------0---|
D 5---5---5---5---5---5---5---2---2---2-------2---2---2-------3---|
A 5---5---5---5---5---5---5---0---0---0-------2---2---2-------3---|
D 5---5---5---5---5---5---5-------|-------X---2---2---2---X---3---|
  1-e-+-a-2-e-+-a-3-e-+-a-4-e-+-a-1-e-+-a-2-e-+-a-3-e-+-a-4-e-+-a-

(2:35)            B       B       B               B       B                     
e |-------0---0---0---0---0---0---0---0---0---0---0---0---0---0---|
B |---1---1---1---1---0---1---1---1---0---1---1---1---0---1---0---|
G |-------0---0---0---0---0---0---0---0---0---0---0---0---0---0---|
D |-------3---3---3---3---3---3---3---3---3---3---3---3---3---5---|
A |-------3---3---3---3---3---3---3---3---3---3---3---3---3---5---|
D |-------3---3---3---3---3---3---3---3---3---3---3---3---3---5---|
  1-e-+-a-2-e-+-a-3-e-+-a-4-e-+-a-1-e-+-a-2-e-+-a-3-e-+-a-4-e-+-a-

  B               B       B       B       B       B       B  
e 0---0---0---0---0---0---0---3---3---3-------0---0---0-----------|
B 3---3---3---3---3---0---3---1---1---1-------0---0---0-------3---|
G 0---0---0---0---0---0---0---0---0---0-------0---0---0-------2---|
D 5---5---5---5---5---5---5---2---2---2-------2---2---2-------0---|
A 5---5---5---5---5---5---5---0---0---0-------2---2---2-----------|
D 5---5---5---5---5---5---5-------|-------X---2---2---2---X-------|
  1-e-+-a-2-e-+-a-3-e-+-a-4-e-+-a-1-e-+-a-2-e-+-a-3-e-+-a-4-e-+-a-

(2:43)    ttt         ttt                 ttt         ttt                    
e |-------------------------------|-------------------------------|
B |---3-----3-----3-----3-----3---|---3-----3-----3-----3-----3---|
G |---2----2------2----2------2---|---2----2------2----2------2---|
D |---0---0-------0---0-------0---|---0---0-------0---0-------0---|
A |-----------3-----------3-------|-----------3-----------3-------|
D 0-------------------------------0-------------------------------|
  1 e + a 2 e + a 3 e + a 4 e + a 1 e + a 2 e + a 3 e + a 4 e + a

          ttt         ttt                                
e |-------------------------------|-------------------------------|
B |---3-----3-----3-----3-----3---3p1---1-------------------------|
G |---2----2------2----2------2---|---2---2p0---0-----------------|
D |---0---0-------0---0-------0---|-----------3---2p0---0---------|
A |-----------3-----------3-------|-------------------3---2p0-----|
D 0-------------------------------|---------------------------3---|
  1 e + a 2 e + a 3 e + a 4 e + a 1 e + a 2 e + a 3 e + a 4 e + a 
                                                                   

e |-------------------------------|
B |--(3b)-------------------------|
G |--(2b)-------------------------|
D |---0---------------------------|
A |-------------------------------|
D 0-------------------------------|
  1-e-+-a-2-e-+-a-3-e-+-a-4-e-+-a-



************************************

b - bend
p - pull off
t - triplet
/ - slide up
\ - slide down
u - upstroke
d - downstroke
x - string slap
B - bass hit

************************************

            
            
Suggest correction
Creating personal tab
Creating personal tab
You can edit any tab online and save it as your Personal.

You can edit, replace or remove any tab part or add personal notes – all changes will be seen only by you.

Personal tabs can be accessed anytime from any device, even offline.
Learn more »
Give kudos to tab author, rate the tab!
1 2 3 4 5
comments
print report bad tab
guest
You may want to rate the tab now too:
select rating
Wanna post a correction for this tab? Suggest correction