Oops, an error
Loading. Please wait.

Keys To The Hover Car tab

7 views 1 this week
no commentswrite comment
1 2 3 4 5
3 more votes to show rating
add to favorites
×
Save as Personal and add changes to this tab that will be seen only by you. Learn more ›
×
You can save this tab as Personal to edit and correct it or add notes. All changes will be seen only by you. Learn more »
launch autoscroll
font size
0
reset
how to read this tab
guitar tuner
edit
Autoscroll
slow
fast
+/-
esc
set tempo
stop
Keys To The Hover Car
Written By Andy Mckee
as played by The Dark stranger
Tabbed by The The Dark Stranger
june 9 2018  
dawnofhumansend@gmail.com
theblightsun@yahoo.com      
i have an old vid of it here
https://youtu.be/xMpKixAgLuw           

                       GO SUPPORT THE ORIGINAL ARTIST YOURE ONLY 
           ALSO, YOU DO NOT HAVE PERMISSION TO ALTER MY TAB IN ANY WAY WHATSOEVER. 

Tuning= FROM LOW TO HIGH, ECDGAD
Capo AT 3RD FRET 

[Intro] 
(pick up the keys)
D|-----------------0------|  D|------------|  D|-----------|
A|----------------0-0-----|  A|--------0---|  A|-----------|
G|---------0-----0---0----|  G|-------0--0-|  G|-----------|     
D|------0---0---0-----0---|  D|---4/5------|  D|---0-------|  (x2)
C|-----0-------3-------3--|  C|---1/2------|  C|--0----0---|
E|-O--5---3---1---------1-|  E|-0----------|  E|-8---7-\-3-|

(Opening)
D|--------------------------------------0-| 
A|---------------------------------0------| 
G|--------------0-----0---------0---0--0--|    (x2)
D|----0-----0----0---0-----0---0----------|
C|--0-----0---4----6-----0--------4---6---|                    
E|------5--------------3-----5------------|

(Opening 2nd part)
D|----------x----------x----------x--------0-| 
A|----------x----------x----------x----------| 
G|----------x--------0-x--------0-x---0---0--|    (x2)
D|--------0-x---0---0--x-------0--x----------|
C|--0----0--x-4---6----x---0------x--4---6---|                    
E|-3---5----x----------x--3---5---x----------|

[Verse 1]
D|-----4----x----------x-| D|----------x-----4---0-x-| 
A|----------x----------x-| A|----------x-----------x-| 
G|----------x--------0-x-| G|----------x--0--------x-|    
D|--------0-x---0---0--x-| D|--------0-x-------0---x-|
C|--0----0--x-4---6----x-| C|--0----0--x-4---6-----x-|                    
E|-3---5----x----------x-| E|-3---5----x-----------x-|

(Opening 2nd part)
D|----------x----------x----------x--------0-| 
A|----------x----------x----------x----------| 
G|----------x--------0-x--------0-x---0---0--|    (x2)
D|--------0-x---0---0--x-------0--x----------|
C|--0----0--x-4---6----x---0------x--4---6---|                    
E|-3---5----x----------x--3---5---x----------|

[Verse 1] 
D|-----4----x--------0-x-| D|----------x-----4---7-x-| 
A|----------x----------x-| A|----------x---------0-x-| 
G|----------x----------x-| G|----------x--0--------x-|    
D|--------0-x---0---0--x-| D|--------0-x-------0---x-|
C|--0----0--x-4---6----x-| C|--0----0--x-4---6-----x-|                    
E|-3---5----x----------x-| E|-3---5----x-----------x-|

D|-0---0----x-----------x--------x-----------------| 
A|-5---0----x-----------x--------x-----------------| 
G|--------0-x---0-----0-x------0-x-----------------|    
D|---0---0--x-------0---x--0--0--x-----------------|
C|----------x-7---6-----x--------x---0---0---0---0-|                    
E|-7---8----x-----------x-7--8---x-7---8---7-0-3---|

[Verse 1] 
(Part 2)
D|-4----x----------x---------x-----5----4-x-| 
A|------x----------x---------x----------0-x-| 
G|------x--------0-x-------0-x--0-----0---x-|    
D|----0-x---0---0--x------0--x------------x-|
C|---0--x-4---6----x--0------x-4---6------x-|                    
E|-5----x----------x-3---5---x------------x-|

(Opening 2nd part)
D|----------x----------x----------x--------0-| 
A|----------x----------x----------x----------| 
G|----------x--------0-x--------0-x---0---0--|    (x2)
D|--------0-x---0---0--x-------0--x----------|
C|--0----0--x-4---6----x---0------x--4---6---|                    
E|-3---5----x----------x--3---5---x----------|

[Verse 1]
(Part 2 CONTINUED)

D|-0---4----x--------0-x-| D|----------x-----4---7-x-| 
A|----------x----------x-| A|----------x---------0-x-| 
G|----------x----------x-| G|----------x--0--------x-|    
D|--------0-x---0---0--x-| D|--------0-x-------0---x-|
C|--0----0--x-4---6----x-| C|--0----0--x-4---6-----x-|                    
E|-3---5----x----------x-| E|-3---5----x-----------x-|

D|-0---0----x-----------x--------x-----------------| 
A|-5---0----x-----------x--------x-----------------| 
G|--------0-x---0-----0-x------0-x-----------------|    
D|---0---0--x-------0---x--0--0--x-----------------|
C|----------x-7---6-----x--------x---0---0---0-----|                    
E|-7---8----x-----------x-7--8---x-7---8---7-0-8-\-|

(MIDDLE SECTION)
D|---------0---------0------------0--------------|
A|-------3---------3----3-------3---3-----0------|
G|-------0---------0------4---4-------4-------0--|
D|-----3---------3----------3-----------3---0----|
C|---0---------0---------------------------------|
E|-1---------1----------3------------------------|

D|---(12)------------0------(12)--4-H-5-P-4-P-0-------|
A|---(12)--0-H-2---2------0-(12)------------5-P-0---3-|
G|---(12)--------0-------0--(12)------------------0---|
D|---------0-H-2--------------------------------------|
C|---------------------6------------------------------|
E|-5--------------------------------------------------|

D|---------0---------0--0--0--0--0--0--0-H-4-/-5-H-7-P-0-H-2-P-0-|
A|-------3---------3----3--3--3--3--3--0-------------------------|
G|-------0---------0----2--2--2--2--2--0-H-4-/-5-H-7-P-0-H-2-P-0-|
D|-----3---------3------3--3--3--3--3----------------------------|
C|---0---------0--------0--0--0--0--0----------------------------|
E|-1---------1----------3--3--3--3--3----------------------------|

(PORTION x)
D|------x----------x--------x--------0-| 
A|------x----------x--------x----------| 
G|------x--------0-x------0-x---0---0--|    (x2)
D|----0-x---0---0--x-----0--x----------|
C|---0--x-4---6----x--0-----x--4---6---|                    
E|-5----x----------x-3--5---x----------|

[Verse 3]
D|-4---P-0---------------(12)-------x-----4H5P4-0-x-|
A|-------x---------------(12)-------x--0--------0-x-|
G|-------x------------(12)----------x---------0---x-|
D|-----0-x----0----(12)-----------0-x-------------x-|
C|---0---x--4---(12)------------0---x-4---6-------x-|
E|-5-----x--------------------5-----x-------------x-|

D|----------x----------x----------x-----------------| 
A|----------x----------x----------x---------------0-| 
G|----------x--------0-x--------0-x-----------0-----|   
D|--------0-x---0---0--x-------0--x---0-----0---0---|
C|--0----0--x-4---6----x---0------x--4--4/6---------|                    
E|-3---5----x----------x--3--5----x-----------------|

D|-0---4---5-x-7---4---5-x-7---4---5-x-0-------0-x--|
A|-----------x-----------x-----------x-----4-----x--|
G|-----------x---0-----0-x---------0-x---0-----0-x--|
D|---------0-x-------0---x-------0---x-------0---x--|
C|---0---0---x-4---6-----x---0-------x-4---6-----x--|
E|-3---5-----x-----------x-3---5-----x-----------x--|

D|----------x-----------x--------x-----------------| 
A|----------x-----------x--------x-----------------| 
G|--------0-x---0-----0-x------0-x-----------------|    
D|---0---0--x-------0---x--0--0--x-----------------|
C|----------x-7---6-----x--------x---0---0---0---0-|                    
E|-7---8----x-----------x-7--8---x-7---8---7-0-3---|

(MID SECTION)
D|---------0---------0------------0--------------|
A|-------3---------3----3-------3---3-----0------|
G|-------0---------0------4---4-------4-------0--|
D|-----3---------3----------3-----------3---0----|
C|---0---------0---------------------------------|
E|-1---------1----------3------------------------|

D|---(12)------------0------(12)--4-H-5-P-4-P-0-------|
A|---(12)--0-H-2---2------0-(12)------------5-P-0---3-|
G|---(12)--------0-------0--(12)------------------0---|
D|---------0-H-2--------------------------------------|
C|---------------------6------------------------------|
E|-5--------------------------------------------------|

D|---------0---------0--0--0--0--0--0--0-H-4-/-5-H-7-P-0-H-2-P-0-|
A|-------3---------3----3--3--3--3--3--0-------------------------|
G|-------0---------0----2--2--2--2--2--0-H-4-/-5-H-7-P-0-H-2-P-0-|
D|-----3---------3------3--3--3--3--3----------------------------|
C|---0---------0--------0--0--0--0--0----------------------------|
E|-1---------1----------3--3--3--3--3----------------------------|

(THE FUTURE REFUSED TO CHANGE)
D|----------------------------------------------------------------------|
A|----------------------------------------------------------------------|
G|-------0-H-2-------------0-H-2-P-0-------0-H-2--------------0-H-2-P-0-|
D|-----4-------------0-H-4---------------4-------------0-H-4------------|
C|---2---------0-H-2-------------------2---------0-H-2------------------|
E|-0---------------------------------0----------------------------------|

D|---------------------------------------------------------------------------|
A|---------------------------------------------------------------------------|
G|---------0-H-4--------------0-H-2-P-0----------0-H-4-------------0-H-2-P-0-|
D|----------------------0-H-4--------------------------------0-H-4-0-H-2-P-0-|
C|-------3--------0-H-2------------------------3-------0-H-2-----------------|
E|-0-H-1---------------------------------0-H-1-------------------------------|

D|-----------0--------------------------------------|
A|---------------------------------0----------------|
G|-----0-H-4---0---0-------------0----4/-(12)-(12)--|
D|-----0-H-4---0-------0--------------4/-(12)-(12)--|
C|-0-------------6---6---0---0----------------------|
E|---5---------------------7---8--------------------|

D|----------------------------------------------------------------------|
A|----------------------------------------------------------------------|
G|-------0-H-2-------------0-H-2-P-0-------0-H-2--------------0-H-2-P-0-|
D|-----4-------------0-H-4---------------4-------------0-H-4------------|
C|---2---------0-H-2-------------------2---------0-H-2------------------|
E|-0---------------------------------0----------------------------------|

D|---------------------------------------------------------------------------|
A|---------------------------------------------------------------------------|
G|---------0-H-4--------------0-H-2-P-0----------0-H-4-------------0-H-2-P-0-|
D|----------------------0-H-4--------------------------------0-H-4-0-H-2-P-0-|
C|-------3--------0-H-2------------------------3-------0-H-2-----------------|
E|-0-H-1---------------------------------0-H-1-------------------------------|

D|-----------0-----------------------------------------------(12)-|
A|---------------------------------0--------------------0-9--(12)-|
G|-----0-H-4---0---0-------------0----4/-(12)---------0------(12)-|
D|-----0-H-4---0-------0--------------4/-(12)---------0---7--(12)-|
C|-0-------------6---6---0---0----------------0---0---------------|
E|---5---------------------7---8----------------7---8-------------|

(THE END OF TIME)
D|-------------4---4-x-4---------------5---5-x-5---------|
A|-------------4---4-x-4---------------5---5-x-5---------|
G|-------------6---6-x-6---------------7---7-x-7---------|  
D|---------5---5-5-5-x-5----------5----5-5-5-x-5---------|
C|-----0-6---6-6---6-x-5------4-6---0--7---7-x-7---------|
E|-3-5-------------------3--5----------------x-----------|

D|-------------4---4-x-4---------------7---7-x-7---------|
A|-------------4---4-x-4---------------7---7-x-7---------|
G|-------------6---6-x-6---------------9---9-x-9---------|  
D|---------5---5-5-5-x-5----------5----7-7-7-x-7---------|
C|-----0-6---6-6---6-x-5------4-6---0--9---9-x-9---------|
E|-3-5-------------------3--5----------------x-----------|

D|-------------2---2-x-2---------------3---3-x-3---------|
A|-------------2---2-x-3---------------3---3-x-3---------|
G|-------------2---2-x-2---------------5---5-x-5---------|  
D|---------3---3-3-3-x-3----------3----3-3-3-x-3---------|
C|-----0-4---4-4---4-x-4------2-4---0--5---5-x-5---------|
E|-1-3-------------------1--3----------------x-----------|
                                                            
D|-------------2---2-x-2---------------5---5-x-5---------|
A|-------------2---2-x-3---------------5---5-x-5---------|
G|-------------2---2-x-2---------------5---5-x-5---------|  
D|---------3---3-3-3-x-3----------3----7-7-7-x-7---------|
C|-----0-4---4-4---4-x-4------2-4---0--7---7-x-7---------|
E|-1-3-------------------1--3----------------x-----------|

(THE FINAL LAP)
D|-------------4---4-x-4---------------5---5-x-5---------|
A|-------------4---4-x-4---------------5---5-x-5---------|
G|-------------6---6-x-6---------------7---7-x-7---------|  
D|---------5---5-5-5-x-5----------5----5-5-5-x-5---------|
C|-----0-6---6-6---6-x-5------4-6---0--7---7-x-7---------|
E|-3-5-------------------3--5----------------x-----------|

D|-------------4---4-x-4---------------7---7-x-7---------|
A|-------------4---4-x-4---------------7---7-x-7---------|
G|-------------6---6-x-6---------------9---9-x-9---------|  
D|---------5---5-5-5-x-5----------5----7-7-7-x-7---------|
C|-----0-6---6-6---6-x-5------4-6---0--9---9-x-9---------|
E|-3-5-------------------3--5----------------x-----------|

D|-------------2---2-x-2---------------3---3-x-3---------|
A|-------------2---2-x-3---------------3---3-x-3---------|
G|-------------2---2-x-2---------------5---5-x-5---------|  
D|---------3---3-3-3-x-3----------3----3-3-3-x-3---------|
C|-----0-4---4-4---4-x-4------2-4---0--5---5-x-5---------|
E|-1-3-------------------1--3----------------x-----------|
                                                            
D|-------------2---2-x-2------------------------0---|
A|-------------2---2-x-3--------------------------0-|
G|-------------2---2-x-2-------------------4--5-----|  
D|---------3---3-3-3-x-3----------3---3--5----------|
C|-----0-4---4-4---4-x-4------2-4---4---------------|
E|-1-3-------------------1--3-----------------------|

D|----------------------------------------------------------------------|
A|----------------------------------------------------------------------|
G|-------0-H-2-------------0-H-2-P-0-------0-H-2--------------0-H-2-P-0-|
D|-----4-------------0-H-4---------------4-------------0-H-4------------|
C|---2---------0-H-2-------------------2---------0-H-2------------------|
E|-0---------------------------------0----------------------------------|

D|-------------2---2-x-2---------------3---3-x-3---------|
A|-------------2---2-x-3---------------3---3-x-3---------|
G|-------------2---2-x-2---------------5---5-x-5---------|  
D|---------3---3-3-3-x-3----------3----3-3-3-x-3---------|
C|-----0-4---4-4---4-x-4------2-4---0--5---5-x-5---------|
E|-1-3-------------------1--3----------------x-----------|

D|----------------------------------------------------------------------|
A|----------------------------------------------------------------------|
G|-------0-H-2-------------0-H-2-P-0-------0-H-2--------------0-H-2-P-0-|
D|-----4-------------0-H-4---------------4-------------0-H-4------------|
C|---2---------0-H-2-------------------2---------0-H-2------------------|
E|-0---------------------------------0----------------------------------|

D|-------------2---2-x-2---------------3---3-x-3---------|
A|-------------2---2-x-3---------------3---3-x-3---------|
G|-------------2---2-x-2---------------5---5-x-5---------|  
D|---------3---3-3-3-x-3----------3----3-3-3-x-3---------|
C|-----0-4---4-4---4-x-4------2-4---0--5---5-x-5---------|
E|-1-3-------------------1--3----------------x-----------|
                                                            
D|-------------2---2-x-2------------------------0---|
A|-------------2---2-x-3--------------------------0-|
G|-------------2---2-x-2-------------------4--5-----|  
D|---------3---3-3-3-x-3----------3---3--5----------|
C|-----0-4---4-4---4-x-4------2-4---4---------------|
E|-1-3-------------------1--3-----------------------|

(FINISH LINE)
D|-2/3-P-0-------0-x--------------------0-x----|
A|---------0-------x---------0------------x----|
G|-----------0-----x-0-0-------0------0---x--0-|
D|-------------4---x-0-0---------0--4-----x----|
C|-----------------x---0------------------x--0-|
E|-0---------------x-1-1--0--5------------x--1-|

(WALK AWAY VICTORIOUS)
D|---------------------------------------0-| 
A|-----------------------------------------| 
G|------------------0----------0----0---0--|    
D|--------0----0---0------0---0------------|
C|--0----0---4---6-------0---------4---6---|                    
E|-3---5----------------3---5--------------|

D|-----------------------------------------x-| 
A|----------------------------------0------x-| 
G|------------------0----------0------0----x-|    
D|--------0----0---0------0---0------------x-|
C|--0----0---4---6-------0---------4----6--x-|                    
E|-3---5----------------3---5--------------x-|

REPEAT SECTIONS AS NEEDED


************************************************************************************

| PM=palm mute
| \ slide
| ()=harmonic
| H\M\P=hammer pull off
| x=slap string

************************************************************************************
Suggest correction
Creating personal tab
Creating personal tab
You can edit any tab online and save it as your Personal.

You can edit, replace or remove any tab part or add personal notes – all changes will be seen only by you.

Personal tabs can be accessed anytime from any device, even offline.
Learn more »
Give kudos to tab author, rate the tab!
1 2 3 4 5
comments
print report bad tab
guest
You may want to rate the tab now too:
select rating
Wanna post a correction for this tab? Suggest correction