Oops, an error
Loading. Please wait.

Rylynn Tab

version 2
version 2

Intro

Whole song

6,167 views 27 this week
no commentswrite comment
1 2 3 4 5
worth learning
x 2
add to favorites
launch autoscroll
font size
0
reset
how to read this tab
guitar tuner
Tab Pro tools
  • play this tab
  • loop segment
  • change instrument
  • show fretboard
  • metronome
×
Best way to learn
"Rylynn"
Autoscroll
slow
fast
+/-
esc
set tempo
stop
Rylynn                                      
Andy Mckee 



                
     H                                          E  S S  S  E.   
D||--------------------------------------------------0h-7h-9---|
A||------------------------------------------------------------|
C||------------------------------------------------------------|
G||------------------------------------------------------------|
F||------------------------------------------------------------|
A||------------------------------------------------------------|


   ^              ^                ^                                 
                                   |-----3----|                      
   Q    E    S  S H.               Q    Q     Q     E   E  H         
--10----9h--10p-9--------------|--10----9----------12---L-----------|
---0--------------7------------|---0---------10---------------------|
---0--------------0------------|---0-----------------------5--------|
------------------0------------|------------------------------------|
------------------0------------|------------------------0-----------|
---0---------------------------|---0--------------------------------|


   ^                   ^                                              
   H        Q     Q    H           E  E  E  E  E  E  E  E  Q    Q     
--10--------9-------------------|-----------0-------------------L----|
---0-------------10----7--------|--------5-----5-----------2----L----|
---0-------------------0--------|-----0-----------0-----0-------L----|
-----------------------0--------|--0-----------------0----------L----|
-----------------------0--------|------------------------------------|
---0----------------------------|------------------------------------|


  ^      ^           ^          ^                  ^     ^               
  E.  S. Q    Q    S E  T    E  E  H.              E.  S Q    Q    Q     
--------------0-----------|---------------------|-------------0---------|
--------------------------|---------------------|-----------------------|
--0---2--4---------L-9--L-|--L--7--L------------|--0---2-4---------L----|
--0---0--2---------L-7--L-|--L--9--L------------|--0---0-2---------L----|
--0---0--0---------L-0--L-|--L--0--L------------|--0---0-0---------L----|
--0---2--3---------L-8--L-|--L--8--L------------|--0---2-3---------L----|


                          ^      ^           ^          ^                
  S S S S H.              E.  S. Q    Q    S E  T    E  E  H.            
-----------------------|--------------0-----------|---------------------|
-----------------------|--------------------------|---------------------|
--------0-L------------|--0---2--4---------L-9--L-|--L--7--L------------|
------0---L------------|--0---0--2---------L-7--L-|--L--9--L------------|
----4-----L------------|--0---0--0---------L-0--L-|--L--0--L------------|
--8-------L------------|--0---2--3---------L-8--L-|--L--8--L------------|


  E.    S S  S E   E.  S  S  S   E      Q     Q    Q    Q    Q    S S S S  
------7g9-L-10-9---9---9-10-12s-14--|--14----10----5----L----L------0-7-9-|
--8---------------10----------------|--12-----8----2----L----L------------|
--0----------------0----------------|---0-----0----0----L----L------------|
--5---------------------------------|--------------0----L----L------------|
------------------------------------|---0-------------------------x-------|
--5----------------7----------------|-----------------------------x-------|


   E  S   S S E  S S S S S S S S  S    S S S S S E   S S S  E  S S   S   S  
--10----7g9---7---------------------|--------------------7-------0h--9h-10-|
---0-------------7-------0-------10-|--------7---8--10-----10-------10-----|
---0--0----------------0-------0----|------0-----0---2---------------------|
---------------------5-------0------|----0-------0---2---------------------|
------------x------0-------x--------|----------x---------------x-----------|
---0--------x--------------x--------|--3-------x-------2-------x-----------|


   E   S S S  E   T  T   E   S  S E  S S    E  S S S S S S S S E  S S S  S  
--10p--9-9---12--------------------------|-------0-------------0----0-7h-9-|
--10-------------12-13br----10-10------7-|-----------7-----2---------------|
---0--------------0-------------0----0---|-----0-------0-----0-------------|
------------------0-------------0--------|--0------------0-----------------|
-----------x-------------0--------x------|---------x--------------x--------|
---0-------x----------------------x------|---------x--------------x--------|


    E  S  S S     E   S E  S  S   S  S S  S    S S S S S E   S S S S S S E  S  
-7g9----10---10g12--10-------9h-10p-9-----|--------------------------------|
---0----------------10------10---------10-|-------7---8--10-------7--------|
---0--0-------------------0---------------|-----0-----0---2-----------2--0-|
--------------------------------------0---|---0-------0---2-----2----------|
-----------x-----------0---------x--------|---------x---------2-----x------|
---0-------x---------------------x--------|-3-------x-------2-------x------|


  S S S S S E  S E  S S  S S  S S    E  E  S  E  S E  S S S S  E   
----------------------------------|-------------------------------|
------------7--------------7h-8-7-|-----8----10---------8---------|
--------0------2------2h-4--------|-----0-----0--2----------2s-4--|
------0-------------0-------------|--------------0----0--------0--|
----4-----x------0-------x--------|--------x--------------x-------|
--0-------x--------------x--------|--3-----x-------2------x-------|


  E.  S E  Q    E  E  E     E  E  E  E  E  E  S S S S  
----------------0--------|--------------------0-0---L-|
-------------------------|-----------7--------7-7---L-|
--0---2----4----------9--|-----7--L--0--------0-0---L-|
--0---0----2----------7--|-----9--L--4--------4-4---L-|
--0---0-x--0-------x--0--|-----0--L-------------------|
--0---2-x--3-------x--8--|--L--8--L--0--L--0------0---|


  S S S S S  E  S S S S S S E  S    E  S S  S  S S  S S S E  S S S S  
----------------------------0----|--L---------------------0----------|
--------8---10-------------------|-----------------------------------|
------0---------4-------4------2-|--L----2h-4p-0--------0--------0---|
----5-----------------0----------|-----0---------0h-4--------------4-|
----------x---------0-----x------|--0-------x---------2------x-2-----|
--5-------x-------7-------x------|----------x----------------x-------|


  E.  S E  Q    E  E  E     E   Q     Q     E   S  S E   
----------------0--------|----------------------0--0----|
-------------------------|-----------10-----L--10-10----|
--0---2----4----------9--|--L--11-----0-----L---0--0----|
--0---0----2----------7--|--L---9-----5-----L---5--5----|
--0---0-x--0-------x--0--|--L---0-----------------------|
--0---2-x--3-------x--8--|--L--10-----0-----0--------0--|


  E.    E   S E   E.  S  S  S  E      E.   S E  E  S S S S S S S S  
------7g9--10-9---9---9-10-12-14--|--14---10----5--L-5-5-5---0-7-9-|
--8--------------10---------------|--12----8----2--L-2-2-2---------|
--0---------------0---------------|---0----0----0--L-0-0-0---------|
--5-------------------------------|-------------0--L-0-0-0---------|
----------------------------------|---0------x-------------x-------|
--5---------------7---------------|----------x-------------x-------|


   E  S   S S E  S S S S S S S S  S    S S S S S E   S S S  E   E  T  T  T T  
-10----7g9---7---------------------|-------------------7-----------------9-|
--0-------------7-------0-------10-|-------7-L-8--10-----10---L-------10---|
--0--0----------------0-------0----|-----0---L-0---2----------L--0h-4------|
--------------------5-------0------|---0-----L-0---2----------L------------|
-----------x------0-------x--------|---------x----------------x------------|
--0--------x--------------x--------|-3-------x-------2--------x------------|


   S  S  S S  S S S  S E  S  S S S S  S    E  S S S S S S S S E  S S S  S  
--10p-9---------------------------------|-------0-------------0----0-7h-9-|
--------10----------10------10---7-8p-7-|-----------7-----2---------------|
-----------4s-2-0------------0----------|-----0-------0-----0-------------|
------------------4-------0-------------|--0------------0-----------------|
--------------x--------0-------x--------|---------x--------------x--------|
---0----------x----------------x--------|---------x--------------x--------|


    E  S  S S     E   S E  S  S   S  S S  S    S S S S S E   S S S S S S E  S  
-7g9----10---10g12--10-------9h-10p-9-----|--------------------------------|
---0----------------10------10---------10-|-------7---8--10-------7--------|
---0--0-------------------0---------------|-----0-----0---2-----------2--0-|
-------------------------------------0----|---0-------0---2-----2----------|
-----------x-----------0---------x--------|---------x---------2-----x------|
---0-------x---------------------x--------|-3-------x-------2-------x------|


  S S S S S E  S E  S S  S S  S S    E  E  S  E  S E  S S S S  E   
----------------------------------|-------------------------------|
------------7--------------7h-8-7-|-----8----10---------8---------|
--------0------2------2h-4--------|-----0-----0--2----------2s-4--|
------0-------------0-------------|--------------0----0--------0--|
----4-----x------0-------x--------|--------x--------------x-------|
--0-------x--------------x--------|--3-----x-------2------x-------|


  E.  S E  Q    E  E  E     E  E  E  E  E  E  S S S S  
----------------0--------|--------------------0-0---L-|
-------------------------|-----------7--------7-7---L-|
--0---2----4----------9--|-----7--L--0--------0-0---L-|
--0---0----2----------7--|-----9--L--4--------4-4---L-|
--0---0-x--0-------x--0--|-----0--L-------------------|
--0---2-x--3-------x--8--|--L--8--L--0--L--0------0---|


  S S S S S  E  S S S S S S E  S    E  S S  S  S S  S S S E  S S S S  
----------------------------0----|--L---------------------0----------|
--------8---10-------------------|-----------------------------------|
------0---------4-------4------2-|--L----2h-4p-0--------0--------0---|
----5-----------------0----------|-----0---------0h-4--------------4-|
----------x---------0-----x------|--0-------x---------2------x-2-----|
--5-------x-------7-------x------|----------x----------------x-------|


  E.  S E  Q    E  E  E     E   Q     Q     E   S  S E   
----------------0--------|----------------------0--0----|
-------------------------|-----------10-----L--10-10----|
--0---2----4----------9--|--L--11-----0-----L---0--0----|
--0---0----2----------7--|--L---9-----5-----L---5--5----|
--0---0-x--0-------x--0--|--L---0-----------------------|
--0---2-x--3-------x--8--|--L--10-----0-----0--------0--|


  E.    E   S E   E.  S  S  S  E      E.   S E   E   S  S  S  S  S  S  S  S  
-----7g9--10-9---9---9-10-12-14--|--14---10----12---L-12-12-12-12-12-12-12-|
-8--------------10---------------|--12----8----10---L-10-10-10-10-10-10-10-|
-0---------------0---------------|---0----0-----0---L--0--0--0--0--0--0--0-|
-5-------------------------------|--------------0---L--0--0--0--0--0--0--0-|
---------------------------------|---0------x-------------------x----------|
-5---------------7---------------|----------x-------------------x----------|


  S         NH                                 
  S S  S    S S S S S  S  S S S S E.           
-----------12-------3p-2p-0-------9---|------||
-----------12-x-0-----------0-----7---|------||
------------7-x-0-----------------0---|------||
--------------x-0-------------0-------|------||
--------------x-----------------x-0---|------||
--0-3h-5----------0-------------x-----|------||




Duration Legend
---------------
W - whole
H - half
Q - quarter
E - 8th
S - 16th
T - 32nd
X - 64th
. - note dotted
|-n-|  - n-tuplets


Tablature Legend
----------------
L - tied note
x - dead note
g - grace note
(n) - ghost note
> - accentuded note
NH - natural harmonic
AH - artificial harmonic
TH - tapped harmonic
SH - semi harmonic
PH - pitch harmonic
h - hammer on
p - pull off
b - bend
br - bendRelease
pb - preBend
pbr - preBendRelease
brb - bendReleaseBend
\n/ - tremolo bar dip
\n - tremolo bar dive
-/n - tremolo bar Release up
/n\ - tremolo bar inverted dip
/n - tremolo bar return
-\n - tremolo bar Release down
S - shift slide
s - legato slide
/ -  slide into from below or out of upwards
\ -  slide into from above or out of downwards
~ - vibrato
W - wide vibrato
tr - trill
TP - tremolo picking
T - tapping
S - slap
P - pop
< - fade in
^ - brush up
v - brush down
comments
We did not receive enough feedback on this tab! Please rate:
print report bad tab
1 2 3 4 5
I want to post or [tab]
guest
You may want to rate the tab now too:
select rating
Please do not post tabs as comments. Select "correction" instead!