Oops, an error
Loading. Please wait.

Martha Sways tab

version 1
version 1

Whole song

3,220 views 48 this week
no commentswrite comment
1 2 3 4 5
x 3
add to favorites
×
Save as Personal and add changes to this tab that will be seen only by you. Learn more ›
×
You can save this tab as Personal to edit and correct it or add notes. All changes will be seen only by you. Learn more »
launch autoscroll
font size
0
reset
how to read this tab
guitar tuner
edit
Autoscroll
slow
fast
+/-
esc
set tempo
stop
Author
Unregistered
The strumming is the top 3 strings then 5th and 4th being plucked after. 
(The bottom e string isn't used)


[Intro]

e |--x------x------x------x----|
G#|---0------0-----0------0----|
E |----0------0------5------5--|
B |--5------2------7------4----| x2
F#|--5------2------7------0----|
B |--5------2------7------0----|



[Verse]

e |--x------x------x------x----|
G#|---0------0-----0------0----|
E |----0------0------5------5--|
B |--5------2------7------4----|
F#|--5------2------7------0----|
B |--5------2------7------0----|

Martha stands
Pretty just like you
I held her close
Like i held you

Martha sways
And i follow suit
She fills my glass
And i toss it back


[Pre-Chorus]

e |--x----|
G#|---0---|
E |----5--|
B |--7----|
F#|--7----|
B |--7----|

Into the space that once held you


[Chorus]

e |------x------x------x------x----|
G#|-------0------0------0------0---|
E |--------5------5------5------5--|
B |------3------3------7------4----|
F#|------3------3------7------0----|
B |--0-2-3------3------7------0----|

And dance dance to the radio
While the devil takes control
Dance dance to the radio
While the devil takes control


[Verse]

e |--x------x------x------x----|
G#|---0------0-----0------0----|
E |----0------0------5------5--|
B |--5------2------7------4----|
F#|--5------2------7------0----|
B |--5------2------7------0----|

There's a weight
Holding me down
Martha says
It's all in my head

I look at the lights
Dancing in her eyes
And i wanna die
Dancing in her eyes


[Chorus]

e |------x------x------x------x----|
G#|-------0------0------0------0---|
E |--------5------5------5------5--|
B |------3------3------7------4----|
F#|------3------3------7------0----|
B |--0-2-3------3------7------0----|

Dance dance to the radio
While the devil takes control x4


[Verse]

e |--x------x------x------x----|
G#|---0------0-----0------0----|
E |----0------0------5------5--|
B |--5------2------7------4----|
F#|--5------2------7------0----|
B |--5------2------7------0----|

Martha spins
And i catch her hand
She smiles and laughs
Bringing me back



************************************

| x  Dead note

************************************

            
            
Suggest correction
Creating personal tab
Creating personal tab
You can edit any tab online and save it as your Personal.

You can edit, replace or remove any tab part or add personal notes – all changes will be seen only by you.

Personal tabs can be accessed anytime from any device, even offline.
Learn more »
Give kudos to tab author, rate the tab!
1 2 3 4 5
comments
print report bad tab
guest
Wanna post a correction for this tab? Suggest correction