Oops, an error
Loading. Please wait.

Martha Sways tab

version 2
version 2

Whole song

3,079 views 60 this week
1 commentread comment
1 2 3 4 5
x 6
add to favorites
×
Save as Personal and add changes to this tab that will be seen only by you. Learn more ›
×
You can save this tab as Personal to edit and correct it or add notes. All changes will be seen only by you. Learn more »
launch autoscroll
font size
0
reset
how to read this tab
guitar tuner
edit
Autoscroll
slow
fast
+/-
esc
set tempo
stop
[Intro]

e|---------------------------------------------------------------------------|
B|-------0---------------0---------------0---------------0-------------------|
G|---4-------4---0---0-------0---0---5-------5---0---5-------5---0-----------|
D|-------------------------------------------------4---4---4---4-------------| x2
A|-------------------------------------------------5---5---5---5-------------|
E|-5---5---5---5---2---2---2---2---7---7---7---7---0---0---0---0-------------|

(drag out the last chord on the second time) 


[Verse]

e|---------------------------------------------------------------------------|
B|-------0---------------0---------------0---------------0-------------------|
G|---4-------4---0---0-------0---0---5-------5---0---5-------5---0-----------|
D|-------------------------------------------------4---4---4---4-------------|
A|-------------------------------------------------5---5---5---5-------------|
E|-5---5---5---5---2---2---2---2---7---7---7---7---0---0---0---0-------------|
Martha's thin and pretty just like you 

e|---------------------------------------------------------------------------|
B|-------0---------------0---------------0---------------0-------------------|
G|---4-------4---0---0-------0---0---5-------5---0---5-------5---0-----------|
D|-------------------------------------------------4---4---4---4-------------|
A|-------------------------------------------------5---5---5---5-------------|
E|-5---5---5---5---2---2---2---2---7---7---7---7---0---0---0---0-------------|
I hold her close  like I held you 


e|---------------------------------------------------------------------------|
B|-------0---------------0---------------0---------------0-------------------|
G|---4-------4---0---0-------0---0---5-------5---0---5-------5---0-----------|
D|-------------------------------------------------4---4---4---4-------------|
A|-------------------------------------------------5---5---5---5-------------|
E|-5---5---5---5---2---2---2---2---7---7---7---7---0---0---0---0-------------|
Martha sways and I follow suit 

e|---------------------------------------------------------------------------|
B|-------0---------------0---------------0---------------0-------------------|
G|---4-------4---0---0-------0---0---5-------5---0---5-------5---0-----------|
D|-------------------------------------------------4---4---4---4-------------|
A|-------------------------------------------------5---5---5---5-------------|
E|-5---5---5---5---2---2---2---2---7---7---7---7---0---0---0---0-------------|
she fills my glass and I toss it back 


e|-----------------------------------|
B|-------0-------0-------0-----------|
G|---5-------5-------5-------5-------|
D|-----------------4---4---4---------|
A|-3---3---3---3---5---5---5---------|
E|-3---3---3---3---0---0---0---0-2-3-| 
into the space that once held you  


[Chorus]

e|---------------------------------------------------------------------------|
B|-----------0-------0-------0-------0-------0---------------0---------------|
G|-------5-------5-------5-------5-------5-------5---0----5-------5----------|
D|-----------------------------------------------------4---4---4-------------| x2
A|-----3---3---3---3---3---3---3---3-------------------5---5---5-------------|
E|-0-2-3---3---3---3---3---3---3---3---7---7---7---7---0---0---0-------------|
and dance dance to the radio  while the devil takes control  


[Instrumental]

e|---------------------------------------------------------------------------|
B|-------0---------------0---------------0---------------0-------------------|
G|---4-------4---0---0-------0---0---5-------5---0---5-------5---0-----------|
D|-------------------------------------------------4---4---4---4-------------| x2
A|-------------------------------------------------5---5---5---5-------------|
E|-5---5---5---5---2---2---2---2---7---7---7---7---0---0---0---0-------------|


[Verse]

e|---------------------------------------------------------------------------|
B|-------0---------------0---------------0---------------0-------------------|
G|---4-------4---0---0-------0---0---5-------5---0---5-------5---0-----------|
D|-------------------------------------------------4---4---4---4-------------|
A|-------------------------------------------------5---5---5---5-------------|
E|-5---5---5---5---2---2---2---2---7---7---7---7---0---0---0---0-------------|
there's a weight holding me down 

e|---------------------------------------------------------------------------|
B|-------0---------------0---------------0---------------0-------------------|
G|---4-------4---0---0-------0---0---5-------5---0---5-------5---0-----------|
D|-------------------------------------------------4---4---4---4-------------|
A|-------------------------------------------------5---5---5---5-------------|
E|-5---5---5---5---2---2---2---2---7---7---7---7---0---0---0---0-------------|
Martha says it's all in my head 


e|---------------------------------------------------------------------------|
B|-------0---------------0---------------0---------------0-------------------|
G|---4-------4---0---0-------0---0---5-------5---0---5-------5---0-----------|
D|-------------------------------------------------4---4---4---4-------------|
A|-------------------------------------------------5---5---5---5-------------|
E|-5---5---5---5---2---2---2---2---7---7---7---7---0---0---0---0-------------|
I look at the lights  dancing in her eyes 

e|---------------------------------------------------------------------------|
B|-------0---------------0---------------0---------------0-------------------|
G|---4-------4---0---0-------0---0---5-------5---0---5-------5---0-----------|
D|-------------------------------------------------4---4---4---4-------------|
A|-------------------------------------------------5---5---5---5-------------|
E|-5---5---5---5---2---2---2---2---7---7---7---7---0---0---0---0-------------|
I wanna die  dancing in her eyes 


[Chorus]

e|---------------------------------------------------------------------------|
B|-----------0-------0-------0-------0-------0---------------0---------------|
G|-------5-------5-------5-------5-------5-------5---0----5-------5----------|
D|-----------------------------------------------------4---4---4-------------| x4
A|-----3---3---3---3---3---3---3---3-------------------5---5---5-------------|
E|-0-2-3---3---3---3---3---3---3---3---7---7---7---7---0---0---0-------------|
and dance dance to the radio  while the devil takes control  


[Verse]

e|---------------------------------------------------------------------------|
B|-------0---------------0---------------0---------------0-------------------|
G|---4-------4---0---0-------0---0---5-------5---0---5-------5---0-----------|
D|-------------------------------------------------4---4---4---4-------------|
A|-------------------------------------------------5---5---5---5-------------|
E|-5---5---5---5---2---2---2---2---7---7---7---7---0---0---0---0-------------|
Martha spins and I catch her hand 

e|---------------------------------------------------------------------------|
B|-------0---------------0---------------0---------------0-------------------|
G|---4-------4---0---0-------0---0---5-------5---0---5-------5---0-----------|
D|-------------------------------------------------4---4---4---4-------------|
A|-------------------------------------------------5---5---5---5-------------|
E|-5---5---5---5---2---2---2---2---7---7---7---7---0---0---0---0-------------|
she smiles and laughs bringing me back 

            
            
Suggest correction
Creating personal tab
Creating personal tab
You can edit any tab online and save it as your Personal.

You can edit, replace or remove any tab part or add personal notes – all changes will be seen only by you.

Personal tabs can be accessed anytime from any device, even offline.
Learn more »
comments
print report bad tab
1 comment total.
0 reply
phuckthepolice 26 a day ago

Great tab. I think that you can play the whole song using your thumb and index finger. Your thumb can brush the first three strings everytime you hit the bass note on the low E string (which is now a B with the tuning), then your index finger can play the little accents on the high strings. Think you can see Shauf doing this in an acoustic set.

guest
You may want to rate the tab now too:
select rating
Wanna post a correction for this tab? Suggest correction