Oops, an error
Loading. Please wait.

To You Bass Tab

142 views 30 this week
no commentswrite comment
1 2 3 4 5
3 more votes to show rating
add to favorites
launch autoscroll
font size
0
reset
guitar tuner
Autoscroll
slow
fast
+/-
esc
set tempo
stop
Help us to improve Ultimate-Guitar.com Take our survey!
×
Standard tuning 
[Intro]
G|------------------|-------------------|
D|------------------|-------------------|
A|------------------|-----7-------------|
E|-1---5---3--------|-3-------3-------1-|


[Main Riff]
G|------------------|------------------|------------------|-------------------|
D|------------------|------------------|------------------|-------------------|
A|------------------|------------------|------------------|-----7-------------| (Repeat)
E|-1----1-----0-1-3-|-1----1-----0-1-3-|-1---5---3--------|-3-------3-------1-|


[Chorus]
G|-----|------------------|------------------|
D|-----|------------------|------------------|
A|-567-|-8-8-8-8-8-8-876--|-5-5-5-5-5-5-567--| (Repeat)
E|-----|------------------|------------------|
Suggest correction
Give kudos to tab author, rate the tab!
1 2 3 4 5
comments
print report bad tab
guest
You may want to rate the tab now too:
select rating
Wanna post a correction for this tab? Suggest correction