Oops, an error
Loading. Please wait.

Youre Out Wasting tab

943 views 6 this week
no commentswrite comment
1 2 3 4 5
x 4
add to favorites
×
Save as Personal and add changes to this tab that will be seen only by you. Learn more ›
×
You can save this tab as Personal to edit and correct it or add notes. All changes will be seen only by you. Learn more »
launch autoscroll
font size
0
reset
how to read this tab
guitar tuner
edit
Autoscroll
slow
fast
+/-
esc
set tempo
stop
Author
Song: You’re Out Wasting
Artist: Andy Shauf
Album: The Bearer of Bad News




Intro:

e|-------------------------------------------------------------|
B|-------------------------------------------------------------|
G|-------------------------------------------------------------|
D|--2--2---1--1---0--0---0--0---2--2--2--2--0--0--0----0-------|
A|--2--2---2--2---2--2---4--4---3--3--3--3--2--2--0h2-----2----|
E|----------------3--3---5--5---3--3--3--3--3--3--3----3--3----|



e|-------------------------------------------------------------|
B|-------------------------------------------------------------|
G|-------------------------------------------------------------|
D|--2--2---1--1---0--0---0--0---2--2--2--2--0--0--0----0-------|
A|--2--2---2--2---2--2---4--4---3--3--3--3--2--2--0h2-----2----|
E|----------------3--3---5--5---3--3--3--3--3--3--3----3--3----|


Vers:

e|-------------------------------------------------------------|
B|-------------------------------------------------------------|
G|-------------------------------------------------------------|
D|--2--2---1--1---0--0---0--0---2--2--2--2--0--0--0----0-------|
A|--2--2---2--2---2--2---4--4---3--3--3--3--2--2--0h2-----2----|
E|----------------3--3---5--5---3--3--3--3--3--3--3----3--3----|

    The bearer of bad news is talking to the breeze.

e|-------------------------------------------------------------|
B|-------------------------------------------------------------|
G|-------------------------------------------------------------|
D|--2--2---1--1---0--0---0--0---2--2--2--2--0--0--0----0-------|
A|--2--2---2--2---2--2---4--4---3--3--3--3--2--2--0h2-----2----|
E|----------------3--3---5--5---3--3--3--3--3--3--3----3--3----|

    Floating forth a message, hiding in the trees.

e|-------------------------------------------------------------|
B|-------------------------------------------------------------|
G|-------------------------------------------------------------|
D|--2--2---1--1---0--0---0--0---2--2--2--2--0--0--0----0-------|
A|--2--2---2--2---2--2---4--4---3--3--3--3--2--2--0h2-----2----|
E|----------------3--3---5--5---3--3--3--3--3--3--3----3--3----|

    The weary voice inside you is darker in the night.

e|----------------------------------------|
B|----------------------------------------|
G|-----------------------0--0--0--0-0--0--|
D|--2--2---1--1---0--0---2--2--2--0h2--2--|
A|--2--2---2--2---2--2---3--3--3--3-3--3--|
E|----------------3--3--------------------|

    The healing hand, the morning light.



Chorus: Just the Chords itself, add the strumming according to the song ;)

e|-----------------------------------------|
B|-----------------------------------------|
G|-------------------4---------4----4------|
D|--5----------------5---------5----5------|
A|--7-------------------------------2------|
E|--0----------------3---------5-----------|

    While you're out wasting time

e|-----------------------------------------|
B|-----------------------------------------|
G|-------4----4---4----4-------------------|
D|-------5----5---5----5-------------------|
A|-----------------------------------------|
E|-------5----3---5----3-------------------|

with the right guy, with the right guy



Vers:

e|-------------------------------------------------------------|
B|-------------------------------------------------------------|
G|-------------------------------------------------------------|
D|--2--2---1--1---0--0---0--0---2--2--2--2--0--0--0----0-------|
A|--2--2---2--2---2--2---4--4---3--3--3--3--2--2--0h2-----2----|
E|----------------3--3---5--5---3--3--3--3--3--3--3----3--3----|

    Tell the early morning that i am on my way.

e|-------------------------------------------------------------|
B|-------------------------------------------------------------|
G|-------------------------------------------------------------|
D|--2--2---1--1---0--0---0--0---2--2--2--2--0--0--0----0-------|
A|--2--2---2--2---2--2---4--4---3--3--3--3--2--2--0h2-----2----|
E|----------------3--3---5--5---3--3--3--3--3--3--3----3--3----|

    Send to him my greetings for happy holidays.

e|-------------------------------------------------------------|
B|-------------------------------------------------------------|
G|-------------------------------------------------------------|
D|--2--2---1--1---0--0---0--0---2--2--2--2--0--0--0----0-------|
A|--2--2---2--2---2--2---4--4---3--3--3--3--2--2--0h2-----2----|
E|----------------3--3---5--5---3--3--3--3--3--3--3----3--3----|

    Spend my open eyes on the things i left behind.

e|----------------------------------------|
B|----------------------------------------|
G|-----------------------0--0--0--0-0--0--|
D|--2--2---1--1---0--0---2--2--2--0h2--2--|
A|--2--2---2--2---2--2---3--3--3--3-3--3--|
E|----------------3--3--------------------|

    My sturdy feet and my hopeful life.



Chorus:

e|-----------------------------------------|
B|-----------------------------------------|
G|-------------------4---------4----4------|
D|--5----------------5---------5----5------|
A|--7-------------------------------2------|
E|--0----------------3---------5-----------|

    While you're out wasting time

e|-----------------------------------------|
B|-----------------------------------------|
G|-------4----4---4----4-------------------|
D|-------5----5---5----5-------------------|
A|-----------------------------------------|
E|-------5----3---5----3-------------------|

with the right guy, with the right guy


Bridge:

e|-------------------------------------------------------------|
B|-------------------------------------------------------------|
G|-------------------------------------------------------------|
D|--2--2---1--1---0--0---0--0---2--2--2--2--0--0--0----0-------|
A|--2--2---2--2---2--2---4--4---3--3--3--3--2--2--0h2-----2----|
E|----------------3--3---5--5---3--3--3--3--3--3--3----3--3----|

e|-------------------------------------------------------------|
B|-------------------------------------------------------------|
G|-------------------------------------------------------------|
D|--2--2---1--1---0--0---0--0---2--2--2--2--0--0--0----0-------|
A|--2--2---2--2---2--2---4--4---3--3--3--3--2--2--0h2-----2----|
E|----------------3--3---5--5---3--3--3--3--3--3--3----3--3----|



Vers:

e|-------------------------------------------------------------|
B|-------------------------------------------------------------|
G|-------------------------------------------------------------|
D|--2--2---1--1---0--0---0--0---2--2--2--2--0--0--0----0-------|
A|--2--2---2--2---2--2---4--4---3--3--3--3--2--2--0h2-----2----|
E|----------------3--3---5--5---3--3--3--3--3--3--3----3--3----|

    The rich man counts his money and holds it in the light,

e|-------------------------------------------------------------|
B|-------------------------------------------------------------|
G|-------------------------------------------------------------|
D|--2--2---1--1---0--0---0--0---2--2--2--2--0--0--0----0-------|
A|--2--2---2--2---2--2---4--4---3--3--3--3--2--2--0h2-----2----|
E|----------------3--3---5--5---3--3--3--3--3--3--3----3--3----|

    Folds the ends together and keeps it by his side.

e|-------------------------------------------------------------|
B|-------------------------------------------------------------|
G|-------------------------------------------------------------|
D|--2--2---1--1---0--0---0--0---2--2--2--2--0--0--0----0-------|
A|--2--2---2--2---2--2---4--4---3--3--3--3--2--2--0h2-----2----|
E|----------------3--3---5--5---3--3--3--3--3--3--3----3--3----|

    He counts his every blessing heaped upon our heads,

e|----------------------------------------|
B|----------------------------------------|
G|-----------------------0--0--0--0-0--0--|
D|--2--2---1--1---0--0---2--2--2--0h2--2--|
A|--2--2---2--2---2--2---3--3--3--3-3--3--|
E|----------------3--3--------------------|

    And tells us to remember them.


Chorus:

e|-----------------------------------------|
B|-----------------------------------------|
G|-------------------4---------4----4------|
D|--5----------------5---------5----5------|
A|--7-------------------------------2------|
E|--0----------------3---------5-----------|

    While you're out wasting time

e|-----------------------------------------|
B|-----------------------------------------|
G|-------4----4---4----4-------------------|
D|-------5----5---5----5-------------------|
A|-----------------------------------------|
E|-------5----3---5----3-------------------|

with the right guy, with the right guy


e|-----------------------------------------|
B|-----------------------------------------|
G|-------------------4---------4----4------|
D|--5----------------5---------5----5------|
A|--7-------------------------------2------|
E|--0----------------3---------5-----------|

    While you're out wasting time

e|-----------------------------------------|
B|-----------------------------------------|
G|-------4----4---4----4-------------------|
D|-------5----5---5----5-------------------|
A|-----------------------------------------|
E|-------5----3---5----3-------------------|

with the right guy, with the right guy


Outro:

e|---------------------------------------|
B|-------5------5------------5----5------|
G|-------0------0------------0----0------|
D|-------5------5------------5----5------|
A|-------7------------------------2------|
E|-------0------3------------5-----------|

With the right guy, with the right guy.

e|-----------------------------------------|
B|-------5-----5-------------5----5--------|
G|-------0-----0-------------0----0--------|
D|-------5-----5-------------5----5--------|
A|-----------------------------------------|
E|-------5-----3-------------5----3--------|

With the right guy, with the right guy.

e|--------------------------|
B|-------5------------------|
G|-------0------------------|
D|-------5------------------|
A|-------7------------------|
E|-------0------------------|

With the right guy.

            
            
Suggest correction
Creating personal tab
Creating personal tab
You can edit any tab online and save it as your Personal.

You can edit, replace or remove any tab part or add personal notes – all changes will be seen only by you.

Personal tabs can be accessed anytime from any device, even offline.
Learn more »
comments
print report bad tab
guest
You may want to rate the tab now too:
select rating
Wanna post a correction for this tab? Suggest correction