Oops, an error
Loading. Please wait.

Humming One Of Your Songs tab

version 2
version 2

Whole song

82 views 1 this week
no commentswrite comment
1 2 3 4 5
3 more votes to show rating
add to favorites
×
Save as Personal and add changes to this tab that will be seen only by you. Learn more ›
×
You can save this tab as Personal to edit and correct it or add notes. All changes will be seen only by you. Learn more »
launch autoscroll
font size
0
reset
how to read this tab
guitar tuner
edit
Autoscroll
slow
fast
+/-
esc
set tempo
stop
Author
Unregistered
Tuning: EADGBE
3/4

 |1   2   3   1   2   3    1   2   3   1   2   3   |
e|------------------------|------------------------|
B|------------------------|------------------------|
G|------------------------|------------------------|
D|------------------------|------------------------| x2
A|8-----8-8-8-6-----6-6-6-|8-----8-8-8-8---10--10--|
E|6-----6-6-6-6-----6-6-6-|6-----6-6-6-6---8---10--|

e|------------------------|------------------------|
B|------------------------|------------------------|
G|------------------------|------------------------|
D|6-----6-6-6-6-----6-6-6-|6-----6-6-6-6---6---6---| x2
A|8-----8-8-8-6-----6-6-6-|8-----8-8-8-8---7---6---|
E|9-----9-9-9-9-----9-9-9-|9-----9-9-9-9---9---9---|



[Lyrics]


[Verse]

I am walking
I am walking alone
And I am humming
I am humming one of your songs


[Chorus]

I just know one small verse in the middle of it
But it makes me want to hear it on and on and on and on
I just know one small verse in the middle of it
But it makes me want to hear it on and on and on and on


[Verse]

Everyday I hear your song now
Everyday it won't go away
So I am humming
I am humming one of your songs


[Chorus]

I just know one small verse in the middle of it
But it makes me want to hear it on and on and on and on
I just know one small verse in the middle of it
But it makes me want to hear it on and on and on and on

I just know one small verse in the middle of it
But it makes me want to hear it on and on and on and on
I just know one small verse in the middle of it
But it makes me want to hear it on and on and on and on


[Outro]

So I am humming
I am humming one of your songs

            
            
Suggest correction
Creating personal tab
Creating personal tab
You can edit any tab online and save it as your Personal.

You can edit, replace or remove any tab part or add personal notes – all changes will be seen only by you.

Personal tabs can be accessed anytime from any device, even offline.
Learn more »
Give kudos to tab author, rate the tab!
1 2 3 4 5
comments
print report bad tab
guest
Wanna post a correction for this tab? Suggest correction