Oops, an error
Loading. Please wait.

To Make You Feel My Love tab

538 views 18 this week
no commentswrite comment
1 2 3 4 5
3 more votes to show rating
add to favorites
×
Save as Personal and add changes to this tab that will be seen only by you. Learn more ›
×
You can save this tab as Personal to edit and correct it or add notes. All changes will be seen only by you. Learn more »
launch autoscroll
font size
0
reset
how to read this tab
guitar tuner
edit
Autoscroll
slow
fast
+/-
esc
set tempo
stop
About this tab version
This cover is simple but so beautiful, but it's hard to find tabs for. These are pretty close. Was this info helpful? Yes No
[Verse 1]
E|-------------------------|------------------------|------------------------|------------------------|
B|-------------------------|------------------------|------------------------|------------------------|
G|-------------------------|------------------------|------------------------|------------------------|
D|-------------------------|------------------------|------------------------|------------------------|
A|-----2-----2-----2-----2-|----2-----2-----2-----2-|----2-----2-----2-----2-|----3-----3-----3-----3-|
E|--3-----3-----3-----3----|-2-----2-----2-----2----|-1-----1-----1-----1----|-0-----0-----0-----0----|

   When the rain is blowing    in your face,           and the whole world is  on your case,

E|-------------------------|-------------------------|-------------------------|-------------------------|
B|-------------------------|-------------------------|-------------------------|-------------------------|
G|-------------------------|-------------------------|-------------------------|-------------------------|
D|-------------------------|-------------------------|-------------------------|-------------------------|
A|-----3-----3-----3-----3-|----2-----2-----2-----2--|----3-----3------3-----3-|----2-----2-----2-----2--|
E|--3-----3-----3-----3----|-3-----3-----3-----3-----|--0-----0-----2-----2----|-3-----3-----3-----3-----|

   I could offer         a warm embrace,                to make you feel my   love.

E|-------------------------|------------------------|------------------------|------------------------|
B|-------------------------|------------------------|------------------------|------------------------|
G|-------------------------|------------------------|------------------------|------------------------|
D|-------------------------|------------------------|------------------------|------------------------|
A|-----2-----2-----2-----2-|----2-----2-----2-----2-|----2-----2-----2-----2-|----3-----3-----3-----3-|
E|--3-----3-----3-----3----|-2-----2-----2-----2----|-1-----1-----1-----1----|-0-----0-----0-----0----|

  When evening shadows and the stars appear,        and there is no one there to dry your tears,

E|-------------------------|-------------------------|-------------------------|-------------------------|
B|-------------------------|-------------------------|-------------------------|-------------------------|
G|-------------------------|-------------------------|-------------------------|-------------------------|
D|-------------------------|-------------------------|-------------------------|-------------------------|
A|-----3-----3-----3-----3-|----2-----2-----2-----2--|----3-----3------3-----3-|----2-----2-----2-----2--|
E|--3-----3-----3-----3----|-3-----3-----3-----3-----|--0-----0-----2-----2----|-3-----3-----3-----3-----|

   I could hold you       for a million years,       to make  you  feel my  love.


[Bridge 1]
E|------------------------|-------------------------|--------------------------|--------------------------|
B|------------------------|-------------------------|--------------------------|--------------------------|
G|------------------------|-------------------------|--------------------------|--------------------------|
D|-----2-----2-----2-----2|-------------------------|----1-----1-----1-----1---|----2-----2-----2-----2---|
A|--3-----3-----3-----3---|-----2-----2-----2-----2-|-2-----2-----2-----2------|-3-----3-----3-----3------|
E|------------------------|--3-----3-----3-----3----|--------------------------|--------------------------|

  I know you haven't made your mind up yet,          but I would never do you  wrong.

E|--------------------------|----------------------------|------------------------|--------------------------|
B|--------------------------|----------------------------|------------------------|--------------------------|
G|--------------------------|----------------------------|------------------------|--------------------------|
D|------2-----2-----2-----2-|----------------------------|------------------------|--------------------------|
A|---3-----3-----3-----3----|-------2------2-----2-----2-|-----3----3-----3----3--|----3------3------3-----3-|
E|--------------------------|---3------3-----3-----3-----|--0----0-----0-----0----|-2------2-----2-----2-----|

   I've known it from the moment that we met,           no doubt in my mind where you belong


[Verse 2]
E|-------------------------|------------------------|------------------------|------------------------|
B|-------------------------|------------------------|------------------------|------------------------|
G|-------------------------|------------------------|------------------------|------------------------|
D|-------------------------|------------------------|------------------------|------------------------|
A|-----2-----2-----2-----2-|----2-----2-----2-----2-|----2-----2-----2-----2-|----3-----3-----3-----3-|
E|--3-----3-----3-----3----|-2-----2-----2-----2----|-1-----1-----1-----1----|-0-----0-----0-----0----|

I'd go hungry; I'd go black and blue,                I'd go crawling down the avenue.

E|-------------------------|-------------------------|-------------------------|-------------------------|
B|-------------------------|-------------------------|-------------------------|-------------------------|
G|-------------------------|-------------------------|-------------------------|-------------------------|
D|-------------------------|-------------------------|-------------------------|-------------------------|
A|-----3-----3-----3-----3-|----2-----2-----2-----2--|----3------3------3-----3-|----2-----2-----2-----2--|
E|--3-----3-----3-----3----|-3-----3-----3-----3-----|--0-----0-----2-----2----|-3-----3-----3-----3-----|

No, there's nothing that I wouldn't do                  to make you feel my love.


[Bridge 2]
E|-------------------------|------------------------|-------------------------|---------------------------|
B|-------------------------|------------------------|-------------------------|---------------------------|
G|-------------------------|------------------------|-------------------------|---------------------------|
D|-----2-----2-----2-----2-|------------------------|----1-----1-----1-----1--|-----2-----2-----2-----2---|
A|--3-----3-----3-----3----|----2-----2-----2-----2-|-2-----2-----2-----2-----|--3-----3-----3-----3------|
E|-------------------------|-3-----3-----3-----3----|-------------------------|---------------------------|

The storms are raging on the rolling sea,             and on the highway     of regret.

E|--------------------------|----------------------------|------------------------|-------------------------|
B|--------------------------|----------------------------|------------------------|-------------------------|
G|--------------------------|----------------------------|------------------------|-------------------------|
D|------2-----2-----2-----2-|----------------------------|------------------------|-------------------------|
A|---3-----3-----3-----3----|-------2------2-----2-----2-|-----3----3-----3-----3-|----3-----3-----3-----3--|
E|--------------------------|---3------3-----3-----3-----|--0----0-----0-----0----|-2-----2-----2-----2-----|

The winds of change are blowing wild and free,           You ain't seen nothing like me yet.


[Verse 3]
E|--------------------------|-----------------------|------------------------|------------------------|
B|--------------------------|-----------------------|------------------------|------------------------|
G|--------------------------|-----------------------|------------------------|------------------------|
D|--------------------------|-----------------------|------------------------|------------------------|
A|-----2-----2-----2-----2--|---2-----2-----2-----2-|----2-----2-----2-----2-|----3-----3-----3-----3-|
E|--3-----3-----3-----3-----|2-----2-----2-----2----|-1-----1-----1-----1----|-0-----0-----0-----0----|

I could make you happy, make your dreams come true,            nothing that I wouldn't do.

E|-------------------------|-------------------------|-------------------------|-------------------------|
B|-------------------------|-------------------------|-------------------------|-------------------------|
G|-------------------------|-------------------------|-------------------------|-------------------------|
D|-------------------------|-------------------------|-------------------------|-------------------------|
A|-----3-----3-----3-----3-|----2-----2-----2-----2--|----3-----3------3-----3-|----2-----2-----2-----2--|
E|--3-----3-----3-----3----|-3-----3-----3-----3-----|--0-----0-----2-----2----|-3-----3-----3-----3-----|

Go to the ends of the Earth for you,                   to make you feel my love, 

E|------------------------|-------------------------|
B|------------------------|-------------------------|
G|------------------------|-------------------------|
D|------------------------|-------------------------|
A|---3-----3------3-----3-|----2-----2-----2-----2--|
E|-0-----0-----2-----2----|-3-----3-----3-----3-----|

      To make you feel my love.

            
            
Suggest correction
Creating personal tab
Creating personal tab
You can edit any tab online and save it as your Personal.

You can edit, replace or remove any tab part or add personal notes – all changes will be seen only by you.

Personal tabs can be accessed anytime from any device, even offline.
Learn more »
Give kudos to tab author, rate the tab!
1 2 3 4 5
comments
print report bad tab
guest
You may want to rate the tab now too:
select rating
Wanna post a correction for this tab? Suggest correction