Oops, an error
Loading. Please wait.

Alone Tab

238 views 1 this week
1 commentread comment
1 2 3 4 5
worth learning
x 3
add to favorites
launch autoscroll
font size
0
reset
how to read this tab
guitar tuner
Autoscroll
slow
fast
+/-
esc
set tempo
stop
Help us to improve Ultimate-Guitar.com Take our survey!
×
Author
Difficulty
intermediate
song: ALONE
by: Angel Blake

www.myspace.com/angelblakeonline 

This tab covers about a third of the song.I'll
update it as soon as i finish the tab.Enjoy xD!

						-Dante


P.S.- The lead guitar E is Droped to D sharp (D#)
P.S.S- Feel free to comment, my email is Gigaryux@gmail.com

(1)guitar 1(lead guitar)
(2)guitar 2(rythm/solo guitar)


~          let ring
/          slide
x          mute
PM: . . .  palm mute
h	   hammer on
p	   pull off


(1) Intro	0:00
e |:|---------------------------|---------------------------|
B |:|----------3----------------|----------3----------------|
G |:|--------0---0--------------|--------0---0--------------|
D |:|--------------1/3-1--------|--------------1/3-1--------|
A |:|---------------------------|---------------------------|
D#|:|------4--------------------|------4--------------------|

(1)Verse 1	0:11						  
e |:|---------------------------|---------------------------|	 
B |:|----------3----------------|----------3----------------|	  
G |:|--------0---0--------------|--------0---0--------------|	 
D |:|--------------1/3-1--------|--------------1/3-1--------|X4	  
A |:|---------------------------|---------------------------|	  
D#|:|------4--------------------|------4--------------------|	  

(1) 0:28
|---------------------------|
|----------3----------------|
|--------0---0--------------|
|--------------1/3----------|X1
|---------------------------|
|------4-------------4------|

(1)		0:29			   0:44
e |:|--------------------------------|	 |------------------------------|
B |:|--------------------------------|	 |------------------------------|
G |:|--------------------------------|	 |------------------------------|
D |:|-----5-------1-----3-----3------|X3 |------5-------2-----3-----3---|X1
A |:|---5---5---1-----3---3----3---3-|	 |----5---5---2-----3---3-------|
D#|:|-4-------0-----2-------2----2---|	 |--4-------0-----2-------2-----|



(1)		1:08						  
e |:|---------------------------|---------------------------|	  
B |:|----------3----------------|----------3----------------|	  
G |:|--------0---0--------------|--------0---0--------------|	  
D |:|--------------1/3-1--------|--------------1/3-1--------|X4	  
A |:|---------------------------|---------------------------|	  
D#|:|------4--------------------|------4--------------------|	  

|---------------------------|
|----------3----------------|
|--------0---0--------------|
|--------------1/3----------|X1
|---------------------------|
|------4-------------3------|

(2)
e |:|-----------------------------------------------------------|
B |:|-----------------------------------------------------------|
G |:|----12-x-x-10---12-x-x-10---12-x-x-10---12-x-x-8-10--------|
D |:|----12-x-x-10---12-x-x-10---12-x-x-10---12-x-x-8-10--------|X2
A |:|----10-x-x-8----10-x-x-8----10-x-x-8----10-x-x-6-8---------|
E |:|-----------------------------------------------------------|


(1)		1:08			   1:21
e |:|--------------------------------|	 |------------------------------|
B |:|--------------------------------|	 |------------------------------|
G |:|--------------------------------|	 |------------------------------|
D |:|-----5-------1-----3-----3------|X3 |------5-------2-----3-----3---|X1
A |:|---5---5---1-----3---3----3---3-|	 |----5---5---2-----3---3-------|
D#|:|-4-------0-----2-------2----2---|	 |--4-------0-----2-------2-----|


(2)
e|:|-------------------------------------------------------------------|
B|:|-------------------------------------------------------------------|
G|:|-------------------------------------------------------------------|
D|:|----5~-------5~--------5~----------5~----------5-5-5-5-5-5-5-5-5-5-|
A|:|----5~-------5~--------5~----------5~----------5-5-5-5-5-5-5-5-5-3-|
E|:|----3~-------3~--------3~----------3~----------3-3-3-3-3-3-3-3-3-3-|
	1:07	 1:12      1:17        1:22     PM:.   .   .   . . .       
							1:24

(1)CHORUS	1:27    its tough to find the patern for it but listen closely.
e |:|--9-9-9-9-x-9-9-9-9-x-9-9-9-9-9-9-9-9-x-9-9-9-9|    |-12/10/9-------|
B |:|--x-x-x-x-x-x-x-x-x-x-x-x-x-x-x-x-x-x-x-x-x-x-x|    |-x-/x-/x-------|
G |:|--6-6-6-6-x-6-6-6-6-x-6-6-6-6-6-6-6-6-x-6-6-6-6|    |-9-/7-/6-------|
D |:|-----------------------------------------------|    |---------------|X4
A |:|-----------------------------------------------|    |---------------|
D#|:|-----------------------------------------------|    |---------------|
							 
(2)
e|:|---------------------------------------------------------------|
B|:|---------------------------------------------------------------|
G|:|---------------------------------------------------------------|
D|:|---------------------------------------------------------------|X4
A|:|---5-5-5-5-5-1-1-1-1-1-1-1-1-1-3-3-3-3-3-0-0-0-0-0-0-0-0-0-----|
E|:|---3-3-3-3-3-1-1-1-1-1-1-1-1-1-3-3-3-3-3-0-0-0-0-0-0-0-0-0-----|
PM:                        . . . .		       . . . .


(1)SOLO (rythm) 1 1:46
e|:|--C-------------!--------------C-------------!-----------|
B|:|---O-----------!----------------O-----------!------------|
G|:|----M---------N------------------M---------N-------------|
D|:|-----I-------O--------------------I-------O--------------|
A|:|------N-----O----------------------N-----O---------------|
D|:|-------G---S------------------------G---S-----------sorry|

(2)SOLO!!!!!! the cool part
e|:|---------------------------------------------------------|
B|:|----------------------------------------8-6-4-3-4-3h4p3--|
G|:|------------------10-8-7-5---5-7-8-7---------------------|
D|:|---5-7-8-10-8-7------------8---------5-------------------|
A|:|----------------8----------------------------------------|
E|:|---------------------------------------------------------|

|------10-8-----14-12-10-9h10p9--9/7/5-4-5-4-5/0--|
|-----------8-------------------------------------|
|7-5----------------------------------------------|
|----5--------------------------------------------|
|-------------------------------------------------|
|-------------------------------------------------|
ENJOY
Suggest correction
Give kudos to tab author, rate the tab!
1 2 3 4 5
comments
print report bad tab
1 comment total.
0 reply
čufko 84 wrote on December 10 2011, 09:08 am

This tab is wrong :/

guest
You may want to rate the tab now too:
select rating
Please do not post tabs as comments. Select "correction" instead!