Oops, an error
Loading. Please wait.

Solitude My Friend Tab

64 views 1 this week
no commentswrite comment
1 2 3 4 5
please rate
add to favorites
launch autoscroll
font size
0
reset
how to read this tab
guitar tuner
Tab Pro tools
  • play this tab
  • loop segment
  • change instrument
  • show fretboard
  • metronome
×
Best way to learn
"Solitude My Friend"
Autoscroll
slow
fast
+/-
esc
set tempo
stop
Contributor
Tuning
D G C F A D
Angel Blake - Solitude, My Friend

Play the chords in D tuning



0:00

Guitar 1

D|-----------------------------------0---0-0-0---0-0---0-0---0---0-0--|
A|-----------------------------------1---1-1-1---1-1---1-1---1---1-1--|
F|-----------------------------------0---0-0-0---0-0---0-0---0---0-0--|
A|--6-6-6-4-6-7-6-----6-6-6-6--4--2--2---2-2-2---2-2---2-2---2---2-2--|
G|-----------------------------------3---3-3-3---3-3---3-3---3---3-3--|
D|--------------------------------------------------------------------|


Guitar 2

D|--0-0-0-0-0---0-----0-0-0-0--0--0--0---0-0-0---0-0---0-0---0---0-0--|
A|--0-0-0-0-0---0-----0-0-0-0--0--0--1---1-1-1---1-1---1-1---1---1-1--|
F|--1-1-1-1-1---1-----1-1-1-1--1--1--0---0-0-0---0-0---0-0---0---0-0--|
A|--2-2-2-2-2---2-----2-2-2-2--2--2--2---2-2-2---2-2---2-2---2---2-2--|
G|--2-2-2-2-2---2-----2-2-2-2--2--2--3---3-3-3---3-3---3-3---3---3-3--|
D|--0-0-0-0-0---0-----0-0-0-0--0--0-----------------------------------|

Repeat this until chorus



Chorus: (2:11)

D|----------------------------------|
A|----------------------------------|
F|------------------5-5-----5-5-----|
A|--2-2-----2-2-----5-5-----5-5-----|
G|--2-2-xx-x2-2-xx-x3-3-xx-x3-3-xx--|
D|--0-0-xx-x0-0-xx-x3-3-xx-x3-3-xx--|


D|--------------------------------------|
A|--------------------------------------|
F|------------------5-5-----5-5-----7\--|
A|--2-2-----2-2-----5-5-----5-5---7-----|
G|--2-2-xx-x2-2-xx-x3-3-xx-x3-3-5-------|
D|--0-0-xx-x0-0-xx-x3-3-xx-x3-3---------|



2:43

Guitar 1 (Distorsion)

D|--------------------------------------------------------------------|
A|--------------------------------------------------------------------|
F|--------------------------------------------------------------------|
A|--2---2----------------------------2---2----------------------------|
G|--2---2----------------------------2---2----------------------------|
D|--0---0----------------------------0---0----------------------------|


Guitar 2 (Acoustic)
D|--------------------------------------------------------------------|
A|----------3-3-3-3--------------------------3-3-3-3------------------|
F|----------3-3-3-3---7-7-5-5-3-3-5----------3-3-3-3---7-7-5-5-7-5-3--|
A|--2---2---1-1-1-1---7-7-5-5-3-3-5--2---2---1-1-1-1---7-7-5-5-7-5-3--|
G|--2---2-------------5-5-3-3-1-1-3--2---2-------------5-5-3-3-5-3-1--|
D|--0---0----------------------------0---0----------------------------|


2:58


Guitar 1 (Distorsion)

D|--------------------------------------------------------------------|
A|--------------------------------------------------------------------|
F|--2---2----------------------------2---2----------------------------|
A|--2---2----------------------------2---2----------------------------|
G|--0---0----------------------------0---0----------------------------|
D|--------------------------------------------------------------------|



Guitar 2 (Acoustic)
D|--------------------------------------------------------------------|
A|------------------------6-6-8-6-5------------------------6-6-8-6-5--|
F|--2---2---5-5-5-5---4-4-7-7-7-7-7--2---2---5-5-5-5---4-4-7-7-7-7-7--|
A|--2---2---5-5-5-5---4-4-7-7-7-7-7--2---2---5-5-5-5---4-4-7-7-7-7-7--|
G|--0---0---3-3-3-3---2-2-5-5-5-5-5--0---0---3-3-3-3---2-2-5-5-5-5-5--|
D|--------------------------------------------------------------------|



Chorus again (3:31)



Outro: (4:03)

D|-------12--------12--------12---10---9--------12--------12--------12---10---9----|
A|--12--------12--------12-----------------12--------12--------12------------------|
F|-----9----9----9----9----9----9----9---9----9----9----9----9----9----9---9----9--|
A|---------------------------------------------------------------------------------|
G|---------------------------------------------------------------------------------|
D|---------------------------------------------------------------------------------|



Tab legend:
x = palm mute
\ = slide down


Tab by Čufko
comments
We did not receive enough feedback on this tab! Please rate:
print report bad tab
1 2 3 4 5
I want to post or [tab]
guest
You may want to rate the tab now too:
select rating
Please do not post tabs as comments. Select "correction" instead!