Oops, an error
Loading. Please wait.

Bad Thing Tab

13 views 6 this week
no commentswrite comment
1 2 3 4 5
3 more votes to show rating
add to favorites
launch autoscroll
font size
0
reset
how to read this tab
guitar tuner
Autoscroll
slow
fast
+/-
esc
set tempo
stop
Help us to improve Ultimate-Guitar.com Take our survey!
×
Author
Difficulty
Tuning
novice
D A D G B E
check out my cover on here if you like: https://youtu.be/GmNhDXC-gRg

Bad Thing

[Intro + 1st Verse]
e|---------------------------------------------------------------------------------------------|
B|---------------------------------------------------------------------------------------------| 
G|---------------------------------------------------------------------------------------------| 
D|-5-3-2--5-3-2--10-5-6-5--5-3-2--10-5-5-6-5-6--5-3-2--10-5-6-5----5-6-5-6-5-6-5-5-------------| 
A|-5-3-2--5-3-2--10-5-6-5--5-3-2--10-5-5-6-5-6--5-3-2--10-5-6-5----5-6-5-6-5-6-5-5-------------| 
D|-5-3-2--5-3-2--10-5-6-5--5-3-2--10-5-5-6-5-6--5-3-2--10-5-6-5----5-6-5-6-5-6-5-5-------------|


[Chorus] ("I'm addicted...)
e|--------------------------------------------------|
B|--------------------------------------------------| 
G|--------------------------------------------------| 
D|-2-2-2-2-10-10-10-10-5-5-5-5-5-5-5-5-5------------| x2
A|-2-2-2-2-10-10-10-10-5-5-5-5-5-5-5-5-5------------| 
D|-2-2-2-2-10-10-10-10-5-5-5-5-5-5-5-5-5------------|


[Bridge]

guitar one 
e|---------------------------------------------------------------------------------------|
B|---------------------------------------------------------------------------------------| 
G|---------------------------------------------------------------------------------------| 
D|--5-3-2--10-5-6-5--5-3-2--10-5-5-6-5-6--5-3-2--10-5-6-5----5-6-5-6-5-6-5-5-------------|
A|--5-3-2--10-5-6-5--5-3-2--10-5-5-6-5-6--5-3-2--10-5-6-5----5-6-5-6-5-6-5-5-------------| 
D|--5-3-2--10-5-6-5--5-3-2--10-5-5-6-5-6--5-3-2--10-5-6-5----5-6-5-6-5-6-5-5-------------|

e|----------------------------------------------------15-15-15-15-15-15-15-15--------------|
B|-------------------------------15-15-15-15-15-15-15-15-15-15-15-15-15-15-15--------------| 
G|-----3h4-4-4—5/7--5---5-4------12-12-12-12-12-12-12-12-12-12-12-12-12-12-12--------------| 
D|-5-5----------------6-----5--------------------------------------------------------------| 
A|-----------------------------------------------------------------------------------------| 
D|-----------------------------------------------------------------------------------------|

guitar two
e|---15-12----12-----12----15-12---12---15-12----12----20-x8-21-x8—20~---------------------|
B|---------15------15--15--------15-----------15-------------------------------------------| 
G|-----------------------------------------------------------------------------------------| 
D|-----------------------------------------------------------------------------------------| 
A|-----------------------------------------------------------------------------------------| 
D|-----------------------------------------------------------------------------------------|


[2nd Verse] ("take me...")
e|---------------------------------------------------------------------------------------|
B|---------------------------------------------------------------------------------------| 
G|---------------------------------------------------------------------------------------| 
D|--5-3-2--10-5-6-5--5-3-2--10-5-5-6-5-6--5-3-2--10-5-6-5----5-6-5-6-5-6-5-5-------------|
A|--5-3-2--10-5-6-5--5-3-2--10-5-5-6-5-6--5-3-2--10-5-6-5----5-6-5-6-5-6-5-5-------------| 
D|--5-3-2--10-5-6-5--5-3-2--10-5-5-6-5-6--5-3-2--10-5-6-5----5-6-5-6-5-6-5-5-------------|


[Chorus] ("I'm addicted...)

guitar 1
e|--------------------------------------------------|
B|--------------------------------------------------| 
G|--------------------------------------------------| 
D|-2-2-2-2-10-10-10-10-5-5-5-5-5-5-5-5-5------------| x4
A|-2-2-2-2-10-10-10-10-5-5-5-5-5-5-5-5-5------------| 
D|-2-2-2-2-10-10-10-10-5-5-5-5-5-5-5-5-5------------|

guitar 2
e|------------------------------------------------------------------------|
B|------------------------------------------------------------------------| 
G|-----3h4-4-4-3h4—-----3h4-4-4-3h4-------3h4-4-4-3h4-4-4-3h4-4-4-3h4-----| 
D|-5-5--------------5-5---------------5-5---------------------------------| 
A|------------------------------------------------------------------------| 
D|------------------------------------------------------------------------|

e|------------------------------------------------------------------------|
B|------------------------------------------------------------------------| 
G|-----3h4-4-4-3h4—-----3h4-4-4-3h4------3h4-4-4-3h4-4-4-3h4p3h4p3h4------| 
D|-5-5--------------5-5--------------5-5----------------------------------| 
A|------------------------------------------------------------------------| 
D|------------------------------------------------------------------------|



************************************

| h  Hammer-on
| /  Slide up
| x  Dead note
| ~  Vibrato
| p  Pull-off

************************************
Suggest correction
Give kudos to tab author, rate the tab!
1 2 3 4 5
comments
print report bad tab
guest
You may want to rate the tab now too:
select rating
Wanna post a correction for this tab? Suggest correction