Oops, an error
Loading. Please wait.

Follow Me Part 2 Tab

version 1
version 1

Whole song

480 views 1 this week
2 commentsread comments
1 2 3 4 5
3 more votes to show rating
add to favorites
launch autoscroll
font size
0
reset
how to read this tab
guitar tuner
Autoscroll
slow
fast
+/-
esc
set tempo
stop
Help us to improve Ultimate-Guitar.com Take our survey!
×
Author
Difficulty
                                Follow Me, (Part 2)

                                    Angel Dust

        Key

 * = pinch harmonic
 / = slide
 . = palm mute
 < = pick scrape

 Okay, before we go any further, I am going to tell you right
now that this tab is wrong.  I figured it out mostly by ear, so i missed a few parts.  
the tabs for Angel Dust are so few and this is such a good song, I figure it can't hurt 
put it in.


Okay, here it is.


 This comes right after the acoustic part.


 -----------------------------------------------|
 -----------------------------------------------|
 -----------------------------------------------|
 -----------------------------------------------|
 -----------------7-5--------------3------------|
 --//////-0--0-0------7-5-0--0-0-0-1------------|
          .  . .          .  . . .


 -----------------------------------------------|
 -----------------------------------------------|
 -----------------------------------------------|
 -----------------------------------------------|
 --------7-5------------------------------------|
 -0--0-0-----7-5-0--0-0-0-6*--------------------|
  .  . .         .  . . .

"'Cause you didn't follow me..."


 -----------------------------------------|
 -----------------------------------------|
 -----------------------------------------|
 -2------2-2------5------5-5--------------|
 -0--0-0-0-0------3--3-3-3-3-<<<<<--------|
 ----------------------------<<<<<--------|
     . .            . .


 This is the fast part.


 ---------------------------------------------------------------|
 ---------------------------------------------------------------|
 -------------4-------------------------------4-----------------|
 ---------------2-------------0-3---------------2---------------|
 --------------------------------------------------10--5--8--3--|
 -0-000-0-0-0-----0-000-0-0-0-----0-000-0-0-0------8---3--6--1--|
  . ... . . .     . ... . . .     . ... . . .

 Key change (background part during the solo)

 ---------------------------------------------------------------|
 -------------4-------------------------------4-----------------|
 ---------------2-------------0-3---------------2--10--5--8--3--|
 --------------------------------------------------8---3--6--1--|
 -0-000-0-0-0-----0-000-0-0-0-----0-000-0-0-0-------------------|
 ---------------------------------------------------------------|
  . ... . . .     . ... . . .     . ... . . .

 -------------------|
 -------------------|
 -------------------|
 -------------------|
 -------------------|
 -0-0-000-0-0-000---|
  . . ... . . ...

 This is when everything slows down again
 and changes from a minor key to a major key.


 ----------------------------------|
 ----------------------------------|
 ----------------------------------|
 --------------------5-------5--5--|
 -5-------5--5-------3---3-3-3--3--|
 -3---3-3-3--3---------------------|
      . . .              . .
Suggest correction
Give kudos to tab author, rate the tab!
1 2 3 4 5
comments
print report bad tab
2 comments total.
0 reply
swordsofplague 162 Apr 20, 2006 10:35 AM

sorry guys, i messed up. it's supposed to be -7-5-----
-----7-5-
on the intro.

0 reply
MasterJames 16 Jun 25, 2010 11:33 AM

Hey hey! I posted up the acoustic intro soon, and should combine yours in check over it and make the full song if you want :-)

guest
You may want to rate the tab now too:
select rating
Wanna post a correction for this tab? Suggest correction