Oops, an error
Loading. Please wait.

Give It Up solo tab

349 views 3 this week
no commentswrite comment
1 2 3 4 5
2 more votes to show rating
add to favorites
×
Save as Personal and add changes to this tab that will be seen only by you. Learn more ›
×
You can save this tab as Personal to edit and correct it or add notes. All changes will be seen only by you. Learn more »
launch autoscroll
font size
0
reset
how to read this tab
guitar tuner
edit
Autoscroll
slow
fast
+/-
esc
set tempo
stop
Author
Difficulty
About this tab version
Covers most of the lead parts between verses and choruses. Based on the studio version from "My Woman.". Was this info helpful? Yes No
Chords for the whole song, including the chorus, are E A F# G, in that order. (You can also play E5 A5 F#5
G5; I actually think she switches to that at a few points during the song.)  The solos are after the first 
chorus (ends in "give it all up for you"), after "you're the one I really love," and after the last "I want to
be."  

[Solo 1]
e|--14--12--10--9-----| repeat 3x
B|--------------------|
G|--------------------|
D|--------------------|
A|--------------------|
E|--------------------|

e|--10/12-12-12-12-12-12-12-10-10---| repeat 2x, then play e|--10/12--| a last time.
B|----------------------------------|
G|----------------------------------|
D|----------------------------------|
A|----------------------------------|
E|----------------------------------|

Not quite sure how many times the e|--12--| is repeated; listen to the song for timing.  Honestly, as long as
the timing you use makes sense, you don't have to get that part 100 percent accurate unless you're trying to 
do a note-for-note cover. 

[Solo 2]
e|--0-0-0-0-0-0-2b-2-------| x4
B|-------------------------|
G|-------------------------|
D|-------------------------|
A|-------------------------|
E|-------------------------|

[Outro]
e|---------------------------|
B|---------------------------|
G|---------------------------|
D|---------------------------|
A|--5/7-7-7-7-7-7-9b-7-5-----|  x2; song ends.  
E|---------------------------|

Again, timing varies; listen to the song.  This is the lead you hear in the right channel on the album.  If
you have another player in your band, they can do either of these in time with the chord progression while you
play the outro.

[Option 1]
e|---------------------------|
B|---------------------------|
G|---------------------------|
D|-----------0---------------|
A|-----0---------------------|
E|--0-----2------------------|

[Option 2]
(same but an octave higher):
e|-------------------------|
B|-----------3-------------|
G|-----2-------------------|
D|--2-----4----------------|
A|-------------------------|
E|-------------------------|


************************************

| b   Bend
| /   Slide up

************************************

            
            
Suggest correction
Creating personal tab
Creating personal tab
You can edit any tab online and save it as your Personal.

You can edit, replace or remove any tab part or add personal notes – all changes will be seen only by you.

Personal tabs can be accessed anytime from any device, even offline.
Learn more »
Give kudos to tab author, rate the tab!
1 2 3 4 5
comments
print report bad tab
guest
You may want to rate the tab now too:
select rating
Wanna post a correction for this tab? Suggest correction