Oops, an error
Loading. Please wait.

Woman bass

85 views 12 this week
no commentswrite comment
1 2 3 4 5
3 more votes to show rating
add to favorites
×
Save as Personal and add changes to this tab that will be seen only by you. Learn more ›
×
You can save this tab as Personal to edit and correct it or add notes. All changes will be seen only by you. Learn more »
launch autoscroll
font size
0
reset
guitar tuner
edit
Autoscroll
slow
fast
+/-
esc
set tempo
stop
4/4 

[Intro]
G|--------------------------------|--------------------------------|
D|--------------------------------|--------------------------------|
A|--------------------------------|------------------------------0-|
E|--------------------------------|----------------------------3---|

[Verse]
G|--------------------------------|--------------------------------|
D|--------------------------------|0---0---------------------------|
A|3---3-----------------------0-3-|------------------------------0-| (x16)
E|--------------------------------|----------------------------3---|

[Pre-Chorus]
G|--------------------------------|--------------------------------|
D|--------------------------------|0---0---------------------------|
A|3---3-----------------------0-3-|--------------------------------|
E|--------------------------------|--------------------------------|

G|--------------------------------|0-------0---------------0-------|
D|0-------------------------------|--------------------------------|
A|--------------------------------|--------------------------------|
E|--------------------------------|--------------------------------|

G|--------------------------------|0---0-------------------0---2---|
D|0---0---------------------0-0---|----------------------0---------|
A|--------------------------------|--------------------------------|
E|--------------------------------|--------------------------------|

G|--------------------------------|0---0---------------------------|
D|0---0-----------------------0---|--------------------------------|
A|--------------------------------|--------------------------------|
E|--------------------------------|--------------------------------|

G|--------------------------------|0---0-------------------0-------|
D|0---0---------------------------|----------------------0---------|
A|--------------------------------|--------------------------------|
E|--------------------------------|--------------------------------|

[Chorus]
G|--------------------------------|0---0-----------0-------0---2---|
D|0---0-----------0-----------0-3-|--------------0-----------------|
A|--------------0-----------0-----|------------4-------------------|
E|--------------------------------|--------------------------------|

G|--------------------------------|0---0-----------0-0-----0-2-2---|
D|0---0-----------0---------------|--------------0-------0---------|
A|--------------0-----------0-3---|------------3-------------------|
E|--------------------------------|--------------------------------|

G|--------------------------------|0---0-------------0-------0-2---|
D|0---0-----------0-------0-------|--------------0-2-----0-2-------|
A|--------------0-----------------|--------------------------------|
E|--------------------------3-----|--------------------------------|

G|--------------------------------|0---0-------0-0-0-0-0-0-0-0-0---|
D|0---0-----------0---------------|--------------------------------|
A|--------------0-----------------|--------------------------------|
E|--------------------------------|--------------------------------|

G|--------------------------------|0---------------0-------0-------|
D|0---0-----------0-----------0-3-|--------------0-----------------|
A|--------------0-----------0-----|--------------------------------|
E|--------------------------------|--------------------------------|

G|--------------------------------|0---0-----------0-0-0-0-0-0-0---|
D|0---0-----------------------0---|--------------------------------|
A|--------------------------3-----|--------------------------------|
E|--------------------------------|--------------------------------|

G|--------------------------------|--------------------12----------|
D|0---0-----------0-0---------0---|--------------------------------|
A|--------------3-----------------|10--10---------10-10----0-3-3-10|
E|--------------------------------|--------------------------------|

G|--------------------------------|0---0-------------------0-2-0---|
D|----0-----------0-0-------------|--------------------------------|
A|--------------3-------------0-3-|--------------------------------|
E|--------------------------3-----|--------------------------------|

G|--------------------------------|--------------------------------|
D|0---0-----------0-0---------0---|5---5-----------5-5-----3-4---5-|
A|--------------3-----------3-----|--------------5-------5---------|
E|--------------------------------|--------------------------------|

G|--------------------------------|0-0---0-0-0-0-0-0-0-0-0-0-0-2---|
D|0---0-----------0-0-------0-----|--------------------------------|
A|--------------3-------------3---|--------------------------------|
E|--------------------------------|--------------------------------|

[Post-Chorus]
G|2-----------2-2-2-----4-----5---|--------------------------------|
D|--------------------------------|0---------------0---------------|
A|--------------------------------|--------------0-----------------|
E|--------------------------------|--------------------------------|

G|----------------0---------------|0---------------0---------------|
D|--------------------------------|--------------0-----------------|
A|3-----------------3---------3---|--------------------------------|
E|--------------------------3---3-|--------------------------------|

G|2---------------2-----4-----5---|--------------------------------|
D|--------------------------------|0---------------0-------2-3-2---|
A|--------------------------------|--------------3-----------------|
E|--------------------------------|--------------------------------|

G|--------------------------------|0---------------0---------------|
D|--------------------------------|--------------3-----------------|
A|3---------------3-----------3---|--------------------------------|
E|--------------3-----------3---3-|--------------------------------|

[Verse]
G|2-----2-----2-------------------|--------------------------------|
D|--------------------------------|0-----0-----0-------------------|
A|--------------------------------|--------------------------------|
E|--------------------------------|--------------------------------|

G|--------------------------------|0-----0-----0-------------------|
D|--------------------------------|--------------------------------|
A|3-----3-----3-------------------|--------------------------------| (x4)
E|--------------------------------|--------------------------------|

[Chorus]
G|2-----2-2---2-------------------|--------------------------------|
D|--------------------------------|0-----0-0---0-------------------|
A|--------------------------------|--------------------------------|
E|--------------------------------|--------------------------------|

G|--------------------------------|0-----0-0---0-------------------|
D|--------------------------------|--------------------------------|
A|3-----3-3---3-------------------|--------------------------------|
E|--------------------------------|--------------------------------|

G|2-----2-2---2-------------------|--------------------------------|
D|--------------------------------|0-----0-0---0-------------------|
A|--------------------------------|--------------------------------|
E|--------------------------------|--------------------------------|

G|--------------------------------|0-----0-0---0-------------------|
D|--------------------------------|--------------------------------|
A|3-----3-3---3-------------------|--------------------------------|
E|--------------------------------|--------------------------------|

G|--------------------------------|--------------------------------|
D|0-----0-----0-------------------|--------------------------------|
A|--------------------------------|3-----3-----3-------------------|
E|--------------------------------|--------------------------------|

G|0-----0-----0-------------------|2-----2-2---2-------------------|
D|--------------------------------|--------------------------------|
A|--------------------------------|--------------------------------|
E|--------------------------------|--------------------------------|

G|--------------------------------|--------------------------------|
D|0-----0-0---0-------------------|--------------------------------|
A|--------------------------------|3-----3-3---3-------------------|
E|--------------------------------|--------------------------------|

G|0---0---0-----0-----------------|2-------------------------------|
D|--------------------------------|--------------------------------|
A|--------------------------------|--------------------------------|
E|--------------------------------|--------------------------------|

G|--------------------------------|--------------------------------|
D|0-------------------------------|--------------------------------|
A|--------------------------------|3-------------------------------|
E|--------------------------------|--------------------------------|

G|0-------------------------------|--------------------------------|
D|--------------------------------|--------------------------------|
A|--------------------------------|0-------------------------------|
E|--------------------------------|--------------------------------|

            
            
Suggest correction
Creating personal tab
Creating personal tab
You can edit any tab online and save it as your Personal.

You can edit, replace or remove any tab part or add personal notes – all changes will be seen only by you.

Personal tabs can be accessed anytime from any device, even offline.
Learn more »
Give kudos to tab author, rate the tab!
1 2 3 4 5
comments
print report bad tab
guest
You may want to rate the tab now too:
select rating
Wanna post a correction for this tab? Suggest correction