Oops, an error
Loading. Please wait.

Angel Witch bass

version 2
version 2

Whole song

Interactive

2,325 views 3 this week
1 commentread comment
1 2 3 4 5
x 3
add to favorites
×
Save as Personal and add changes to this tab that will be seen only by you. Learn more ›
×
You can save this tab as Personal to edit and correct it or add notes. All changes will be seen only by you. Learn more »
launch autoscroll
font size
0
reset
guitar tuner
edit
Autoscroll
slow
fast
+/-
esc
set tempo
stop
                  A  N  G  E  L  W  I  T  C  H
                      A N G E L W I T C H

Intro
--------------------------|
--------------------------|
--------------------------|
-5r----5-3r----1111-3-5r--|

Verse
-------------------------------|
-------------------------------|
-------------------------------|
-5--5-5--5-3--3-3--1--1-1-3--5-|

Chorus
-------------------------------|
-------------------------------|
--------------------8-8-7------|
-5--5-5-7-8--8-8-8---------8-5-|

Bridge
----------------------------------------------------------|
----------------------------------------------------------|
-3-----7--777-5----8--10---7----8--10--12--10-----8---7r--|
----------------7-----------------------------------------|

Chorus Variation
------------------------------|
------------------------------|
----------------8---7---------|
-5------7-8------------8--5---|

Song Structure
Intro x2
Verse x6
Chorus x2
Verse x5
Chorus x2
Verse x2
Bridge x1
Intro x2
Chorus x5
Chorus Variation x4
Chorus x8 (fade out)

Metal_up_your_ass@2die4.com

            
            
Suggest correction
Creating personal tab
Creating personal tab
You can edit any tab online and save it as your Personal.

You can edit, replace or remove any tab part or add personal notes – all changes will be seen only by you.

Personal tabs can be accessed anytime from any device, even offline.
Learn more »
Give kudos to tab author, rate the tab!
1 2 3 4 5
comments
print report bad tab
1 comment total.
0 reply
Schnitte_94 10 Sep 27, 2015 04:18 AM, edited at 08:19 am

I think the Bridge doesn´t sound right.

G-------------------------------------------
D-------------------------------------------
A--3---7-777-8-10--7--8--10--12--10--8--7r--
E-------------------------------------------

Otherwise great tab! thanks!

guest
Wanna post a correction for this tab? Suggest correction