Oops, an error
Loading. Please wait.

Audreys Dance bass

version 1
version 1

Whole song

Interactive

5,854 views 39 this week
no commentswrite comment
1 2 3 4 5
x 5
add to favorites
×
Save as Personal and add changes to this tab that will be seen only by you. Learn more ›
×
You can save this tab as Personal to edit and correct it or add notes. All changes will be seen only by you. Learn more »
launch autoscroll
font size
0
reset
guitar tuner
edit
Autoscroll
slow
fast
+/-
esc
set tempo
stop
Author
Difficulty
Angelo Badalamenti - Audreys Dance/Freshly Squeezed/Dance of the Dream Man
From Twin Peaks

This is that cool, jazzy bass line you hear all the way through the series.
Ive noted all the names of the tracks on the soundtrack that are based around
this very same bass line, they only ever vary in tempo. Theres very little to
it, but its achingly cool. If you're lucky enough to have a double bass, im
sure I dont need to tell you you'll need to play this on it.


G--------------------------------------------------------------------------|
D--10----------------10----------------10----------------10----------------|
A--------------------------------------------------------------------------|
E-----------8-----------------8-----------------8-----------------8--------|

G----------------------------------------------|
D--10---9----8----7----------------------------|
A----------------------11---10---9----8--------|
E-------------------------------------------11-|

G----------------------------------------------|
D----------------------------------------------|
A-----------------8----9----10---11--10-9-8----|
E--8----10---11-----------------------------11-|

G----------------------------------------------|
D-------------------------------------7-----9--|
A-----------------8----9----10---11------------|
E--8----10---11--------------------------------|


At this point the whole pattern basically just repeats like this:


G----------------------------------------------|
D--10---9----8----7----------------------------|
A----------------------11---10---9----8--------|
E-------------------------------------------11-|

G----------------------------------------------|
D----------------------------------------------|
A-----------------8----9----10---11--10-9-8----|
E--8----10---11-----------------------------11-|

G----------------------------------------------|
D-------------------------------------7-----9--|
A-----------------8----9----10---11------------|
E--8----10---11--------------------------------|


You also hear a part where this small section repeats a number of times:

G----------------------------------------------|
D----------------------------------------------|
A-----------------8----9----10---11--10-9-8----|
E--8----10---11-----------------------------11-|

And thats it, enjoy. If you're staying at the Great Northern dont
play too loud alright? Otherwise you know Diane will hear about it...

Any questions, please email me: Big_dave699@hotmail.com
Suggest correction
Creating personal tab
Creating personal tab
You can edit any tab online and save it as your Personal.

You can edit, replace or remove any tab part or add personal notes – all changes will be seen only by you.

Personal tabs can be accessed anytime from any device, even offline.
Learn more »
comments
print report bad tab
guest
You may want to rate the tab now too:
select rating
Wanna post a correction for this tab? Suggest correction