Oops, an error
Loading. Please wait.

Confessioni Di Un Malandrino Tab

version 1
version 1

Whole song

Interactive

6,684 views 18 this week
no commentswrite comment
1 2 3 4 5
x 6
add to favorites
launch autoscroll
font size
0
reset
how to read this tab
guitar tuner
Autoscroll
slow
fast
+/-
esc
set tempo
stop
Author
Difficulty
advanced
Testo e accordi

(Barrè al 5° tasto)


     Am                                                                  G7     
e|--0--------1--0---------|------------------------|--------------------1-----|
B|-----1-------------3----|--1--------3--1----0----|--------0-----1-----------|
G|--------2---------------|-----2------------------|-----2-----2-----2-----0--|
D|------------------------|--------2---------------|--------------------------|
A|--0---------------------|--0---------------------|--0-----------------------|
E|------------------------|-------------------0----|--------------------3-----|

    C           E7                                                            
e|--0-----------0-----------|--0--------1--0---------|------------------------|
B|--------1-----------3-----|-----1-------------3----|--1--------3--1----0----|
G|-----0-----0-----1-----1--|--------2---------------|-----2------------------|
D|--------------------------|------------------------|--------2---------------|
A|--3-----------------------|--0---------------------|--0---------------------|
E|--------------0-----------|------------------------|-------------------0----|

                     G                                        
e|-------------------3----|--0--------------------|----------|
B|--------0-----1---------|---------3--1--0-------|----------|
G|-----2-----2------------|------------------2----|----------|
D|------------------------|-----------------------|----------|
A|--0---------------------|--0--------------------|----------|
E|-------------------3----|-----------------------|----------|

e|---0--------1--0---------|------------------------|--------------------1-----|
B|------1-------------3----|--1--------3--1----0----|--------0-----1-----------|
G|*--------2---------------|-----2------------------|-----2-----2-----2-----0--|
D|*------------------------|--------2---------------|--------------------------|
A|---0---------------------|--0---------------------|--0-----------------------|
E|-------------------------|-------------------0----|--------------------3-----|

e|--0-----------0-----------|--0--------1--0---------|------------------------|
B|--------1-----------3-----|-----1-------------3----|--1--------3--1----0----|
G|-----0-----0-----1-----1--|--------2---------------|-----2------------------|
D|--------------------------|------------------------|--------2---------------|
A|--3-----------------------|--0---------------------|--0---------------------|
E|--------------0-----------|------------------------|-------------------0----|

e|--------------------3-----|--0-----------|-----------|
B|--------0-----1-----------|-----------1--|-----------|
G|-----2-----2-----2-----0--|--------2-----|-----------|
D|--------------------------|-----2--------|-----------|
A|--0-----------------------|--0-----------|--0--------|
E|--------------------3-----|--------------|-----------|

    C                                                   
e|-----------3--------------|--------------------------|
B|--------1-----1-----1-----|--------1-----0-----0-----|
G|-----0-----------0-----0--|-----0-----0-----0-----0--|
D|--------------------------|--------------------------|
A|--3-----------------------|--------------------------|
E|--------------------------|--3-----------------------|

                                                          Am                    
e|--------------0-----------|-----------0-----------0--|--0--------1--0---------|
B|--------1-----------1-----|--------0-----------0-----|-----1-------------3----|
G|-----2-----2-----2-----2--|-----0-----------0--------|--------2---------------|
D|--------------------------|--------------2-----------|------------------------|
A|--0-----------------------|--------------------------|--0---------------------|
E|--------------------------|--0-----------------------|------------------------|

e|------------------------|--------------------3-----|--0-----------|-----------|
B|--1--------3--1----0----|--------0-----1-----------|-----------1--|-----------|
G|-----2------------------|-----2-----2-----2-----0--|--------2-----|-----------|
D|--------2---------------|--------------------------|-----2--------|-----------|
A|--0---------------------|--0-----------------------|--0-----------|--0--------|
E|-------------------0----|--------------------3-----|--------------|-----------|

e|--0--------1--0---------|------------------------|-------------------3----|
B|-----1-------------3----|--1--------3--1----0----|--------0-----1---------|
G|--------2---------------|-----2------------------|-----2-----2------------|
D|------------------------|--------2---------------|------------------------|
A|--0---------------------|--0---------------------|--0---------------------|
E|------------------------|-------------------0----|-------------------3----|

                                          A7                       
e|--0--------------------|-----------||------------------------3--|
B|---------3--1--0-------|-----------||---------2-----------2-----|
G|------------------2----|----------*||*-----2-----2-----2--------|
D|-----------------------|----------*||*--2-----------------------|
A|--0--------------------|-----------||---------------0-----------|
E|-----------------------|-----------||---------------------------|

e|-----------0--1--0--------|--------------3--1--0-----|
B|--------3-----------3--1--|--------0--------------3--|
G|-----2--------------------|-----0-----0--------------|
D|--0-----------0-----------|--------------------------|
A|--------------------------|--------------------------|
E|--------------------------|--3-----------3-----------|

e|--------0--1--0-----------|--------0-----------------|
B|--1--3-----------3--1--0--|-----------3--1--0-----0--|
G|--------------------------|-----1--------------2-----|
D|--------------------------|--------------------------|
A|--3-----------------------|--------------------------|
E|--------------------------|--0-----------------------|

e|--------------------------|-----------1-----------1--|
B|--------3-----1-----0-----|--------1-----------1-----|
G|-----2-----2-----2-----2--|-----2-----------2--------|
D|--------------------------|--------------3-----------|
A|--0-----------------------|--------------------------|
E|--------------------------|--1-----------------------|

e|-----------0-----------0---||-----------1-----------0--|
B|--------0-----------0------||--------1-----------0-----|
G|-----1-----------1--------*||-----2-----------1--------|
D|--------------2-----------*||--------------------------|
A|---------------------------||--------------------------|
E|--0------------------------||--1-----------0-----------|

e|--0--------1--0---------|------------------------|-------------------3----|
B|-----1-------------3----|--1--------3--1----0----|--------0-----1---------|
G|--------2---------------|-----2------------------|-----2-----2------------|
D|------------------------|--------2---------------|------------------------|
A|--0---------------------|--0---------------------|--0---------------------|
E|------------------------|-------------------0----|-------------------3----|

                                         A7                       
e|--0--------------------|----------||------------------------3--|
B|---------3--1--0-------|----------||---------2-----------2-----|
G|------------------2----|----------||*-----2-----2-----2--------|
D|-----------------------|----------||*--2-----------------------|
A|--0--------------------|----------||---------------0-----------|
E|-----------------------|----------||---------------------------|

e|-----------0--1--0--------|--------------3--1--0-----|
B|--------3-----------3--1--|--------0--------------3--|
G|-----2--------------------|-----0-----0--------------|
D|--0-----------0-----------|--------------------------|
A|--------------------------|--------------------------|
E|--------------------------|--3-----------3-----------|

e|--------0--1--0-----------|--------0-----------------|
B|--1--3-----------3--1--0--|-----------3--1--0-----0--|
G|--------------------------|-----1--------------2-----|
D|--------------------------|--------------------------|
A|--3-----------------------|--------------------------|
E|--------------------------|--0-----------------------|

e|--------------------------|-----------1-----------1--|
B|--------3-----1-----0-----|--------1-----------1-----|
G|-----2-----2-----2-----2--|-----2-----------2--------|
D|--------------------------|--------------3-----------|
A|--0-----------------------|--------------------------|
E|--------------------------|--1-----------------------|

                                 E7                                         
e|-----------0-----------0---||--0----------------|------------------------|
B|--------0-----------0------||--3----------------|--------3-----1---------|
G|-----1-----------1--------*||--1----------------|-----2-----2-----2------|
D|--------------2-----------*||--2----------------|------------------------|
A|---------------------------||--2----------------|--0---------------------|
E|--0------------------------||--0----------------|------------------------|

    F                   E                                          
e|--1----------------|--0----------------|--0--------1--0---------|
B|--1----------------|--0----------------|-----1-------------3----|
G|--2----------------|--1----------------|--------2---------------|
D|--3----------------|--2----------------|------------------------|
A|--3----------------|--2----------------|--0---------------------|
E|--1----------------|--0----------------|------------------------|

                                              G6      Aadd9              
e|------------------------|-------------------0----|--0----------------||
B|--1--------3--1----0----|--------0-----1----0----|--0----------------||
G|-----2------------------|-----2-----2-------0----|--2----------------||
D|--------2---------------|-------------------0----|--2----------------||
A|--0---------------------|--0----------------2----|--0----------------||
E|-------------------0----|-------------------3----|--0----------------||
Suggest correction
comments
print report bad tab
guest
You may want to rate the tab now too:
select rating
Wanna post a correction for this tab? Suggest correction