Oops, an error
Loading. Please wait.

Am I Ever Gonna See Your Face Again bass

version 1
version 1

Whole song

Interactive

by Angels
2,557 views 15 this week
3 commentsread comments
1 2 3 4 5
1 last vote to show rating
add to favorites
×
Save as Personal and add changes to this tab that will be seen only by you. Learn more ›
×
You can save this tab as Personal to edit and correct it or add notes. All changes will be seen only by you. Learn more »
launch autoscroll
font size
0
reset
guitar tuner
edit
Autoscroll
slow
fast
+/-
esc
set tempo
stop
-----------------------------------------------------------------------------
             Am I Ever Gonna See Your Face Again - The Angels
-----------------------------------------------------------------------------

Tabbed by: Country Bass
E-mail: aaron.white8@education.nsw.gov.au

An Aussie classic, The Angels with one of the best Aussie tracks of the mid 60's, Have Fun

Tuning: Standard

Intro Part 1

G|---------------------------|
D|---------------------------|
A|---3~------3~------3~------|
E|---------------------------|

Intro Part 2

G|-----------------------------------------------------------------|
D|-----------------------------------------------------------------|
A|-----------------------------------------------------------------| 
E|--0-0-0-0-0-0-0-0-0-0-0-0-0-0-0-0-0-0-0-0-0-0-0-0-0-0-0-0-0-0-0--|

Verse 

G|------|
D|----1-|
A|-21---|
E|------|

G|-------------------------------------------------------------------|
D|-------------------------------------------------------------------|
A|--6-6-6-6-6-6-6-6-6-6-6-6-6-6-6-6-6-6-6-6-6-6-6-6-6-6-6-6-6-6-6-6--| x2
E|-------------------------------------------------------------------|

Chorus

G|-------------------------------------------------------------------|
D|-------------------------------------------------------------------|
A|----------------------------------6-6-6-6-6-6-6-6-6-6-6-6-6-6-6-6--| x2
E|--5-5-5-5-5-5-5-5-5-5-5-5-5-5-5-5----------------------------------|

Bridge

G|------------------------------------------------|
D|------------------------------------------------|
A|-------------------------6-6--6-6-6-------------|
E|--6-6--6-6-6--6-6--6-6-6------------5-5--5-5-5--|

G|--------------------------------------------------|
D|--------------------------------------------------|
A|--------------------------------------------------|
E|--6-6--6-6-6--6-6--6-6-6--5-5--5-5-5--5-5--5-5-5--|


Playing Order

Intro Part 1
Intro Part 2
Verse 
Chorus
Verse 
Bridge
Chorus
Verse
Chorus 
Intro Part 1
Bridge
Chorus
Intro Part 1 x2
Chorus x5 (until fade out)



Have Fun


| /  slide up
| \  slide down
| h  hammer-on
| p  pull-off
| ~  vibrato
| +  harmonic
| x  Mute note
=============================================================================

            
            
Suggest correction
Creating personal tab
Creating personal tab
You can edit any tab online and save it as your Personal.

You can edit, replace or remove any tab part or add personal notes – all changes will be seen only by you.

Personal tabs can be accessed anytime from any device, even offline.
Learn more »
Give kudos to tab author, rate the tab!
1 2 3 4 5
comments
print report bad tab
3 comments total.
0 reply
mark8685 10 Jun 03, 2014 08:14 PM

worst tab ever! the song is so basic how can you get it this wrong?

0 reply
shaundstevens 10 Mar 06, 2015 10:34 PM

Clearly wrong. I don't hear the D# in the song. Should be E. Also what happened to the B? It's just not right

0 reply
Country Bass 2,969 Mar 17, 2015 03:04 AM

I apologize for the inaccuracy, I did this tab before i had a full understanding of the notes. The A-6, should be A-7, so that it's an E

guest
You may want to rate the tab now too:
select rating
Wanna post a correction for this tab? Suggest correction