Oops, an error
Loading. Please wait.

No Secrets bass

version 1
version 1

Whole song

Interactive

by Angels
538 views 18 this week
2 commentsread comments
1 2 3 4 5
x 4
add to favorites
×
Save as Personal and add changes to this tab that will be seen only by you. Learn more ›
×
You can save this tab as Personal to edit and correct it or add notes. All changes will be seen only by you. Learn more »
launch autoscroll
font size
0
reset
guitar tuner
edit
Autoscroll
slow
fast
+/-
esc
set tempo
stop
Author
There is an existing version of the bass tab, but it's not very friendly to read 
and it's not written out in full.

NO SECRETS – THE ANGELS

[Intro]
G|----------------|----------------|----------------|----------------|
D|----------------|----------------|----------------|----------------|    x2
A|----------------|--------------2-|3-3-3-3-3-3-3-3-|3-3-3-3-3-2-0---|
E|0-0-0-0-0-0-0-2-|3-3-3-3-3-3-3---|----------------|--------------3-|

[Verse 1]
G|----------------|----------------|----------------|----------------|
D|----------------|----------------|----------------|----------------|    x4
A|----------------|--------------2-|3-3-3-3-3-3-3-3-|3-3-3-3-3-2-0---|
E|0-0-0-0-0-0-0-2-|3-3-3-3-3-3-3---|----------------|--------------3-|

[Pre Chorus 1]
G|----------------|----------------|----------------|----------------|
D|----------------|----------------|----------------|----------------|
A|----------------|5-5-5-5-5-5-5-5-|3-3-3-3-3-3-3-3-|3-3-3-3-3-3-3-3-|
E|3-3-3-3-3-3-3-3-|----------------|----------------|----------------|

G|----------------|----------------|----------------|----------------|
D|----------------|----------------|----------------|----------------|
A|7-7-7-7-7-7-7-7-|5-5-5-5-5-5-5-5-|3-3-3-3-3-3-3-3-|3-3-3-3-3-3-3-3-|
E|----------------|----------------|----------------|----------------|

G|----------------|----------------|
D|----------------|----------------|
A|5-5-5-5-5-5-5-5-|3-----2-----0---|
E|----------------|----------------|

[Chorus 1]
G|------0---------|----------------|----------------|----------------|
D|----0-----------|----0-4---------|----------------|----------------|    x2
A|--2-------------|--2-------------|--0-2-3---------|--0-2-3---------|
E|3---------------|3---------------|3---------------|3---------------|

G|----------------|----------------|----------------|----------------|
D|----------------|----------------|----------------|----------------|
A|----------------|5-5-5-5-5-5-5-5-|3-3-3-3-3-3-3-3-|3-3-3-3-3-3-3-3-|
E|3-3-3-3-3-3-3-3-|----------------|----------------|----------------|

G|----------------|----------------|----------------|----------------|
D|----------------|----------------|----------------|----------------|
A|5-5-5-5-5-5-5-5-|5-5-5-5-5-5-5-5-|5-5-5-5-5-5-5-5-|----------------|
E|----------------|----------------|----------------|----------------|

[Verse 2]
G|----------------|----------------|----------------|----------------|
D|----------------|----------------|----------------|----------------|    x2
A|----------------|--------------2-|3-3-3-3-3-3-3-3-|3-3-3-3-3-2-0---|
E|0-0-0-0-0-0-0-2-|3-3-3-3-3-3-3---|----------------|--------------3-|

[Pre Chorus 2]
G|----------------|----------------|----------------|----------------|
D|----------------|----------------|----------------|----------------|
A|----------------|5-5-5-5-5-5-5-5-|3-3-3-3-3-3-3-3-|3-3-3-3-3-3-3-3-|
E|3-3-3-3-3-3-3-3-|----------------|----------------|----------------|

G|----------------|----------------|----------------|----------------|
D|----------------|----------------|----------------|----------------|
A|7-7-7-7-7-7-7-7-|5-5-5-5-5-5-5-5-|3-3-3-3-3-3-3-3-|3-3-3-3-3-3-3-3-|
E|----------------|----------------|----------------|----------------|

G|----------------|----------------|
D|----------------|----------------|
A|5-5-5-5-5-5-5-5-|3-----2-----0---|
E|----------------|----------------|

[Chorus 2]
G|------0---------|----------------|----------------|----------------|
D|----0-----------|----0-4---------|----------------|----------------|    x2
A|--2-------------|--2-------------|--0-2-3---------|--0-2-3---------|
E|3---------------|3---------------|3---------------|3---------------|

G|----------------|----------------|----------------|----------------|
D|----------------|----------------|----------------|----------------|
A|----------------|5-5-5-5-5-5-5-5-|3-3-3-3-3-3-3-3-|3-3-3-3-3-3-3-3-|
E|3-3-3-3-3-3-3-3-|----------------|----------------|----------------|

G|----------------|----------------|----------------|----------------|
D|----------------|----------------|----------------|----------------|
A|5-5-5-5-5-5-5-5-|5-5-5-5-5-5-5-5-|5-5-5-5-5-5-5-5-|----------------|
E|----------------|----------------|----------------|----------------|

[Guitar Solo]
G|----------------|----------------|----------------|----------------|
D|----------------|----------------|----------------|----------------|    x4
A|----------------|--------------2-|3-3-3-3-3-3-3-3-|3-3-3-3-3-2-0---|
E|0-0-0-0-0-0-0-2-|3-3-3-3-3-3-3---|----------------|--------------3-|

[Pre Chorus 3]
G|----------------|----------------|----------------|----------------|
D|----------------|----------------|----------------|----------------|
A|----------------|5-5-5-5-5-5-5-5-|3-3-3-3-3-3-3-3-|3-3-3-3-3-3-3-3-|
E|3-3-3-3-3-3-3-3-|----------------|----------------|----------------|

G|----------------|----------------|----------------|----------------|
D|----------------|----------------|----------------|----------------|
A|7-7-7-7-7-7-7-7-|5-5-5-5-5-5-5-5-|3-3-3-3-3-3-3-3-|3-3-3-3-3-3-3---|
E|----------------|----------------|----------------|----------------|

G|----------------|----------------|
D|----------------|----------------|
A|5-5-5-5-5-5-5-5-|3-----2-----0---|
E|----------------|----------------|

[Chorus 3]
G|------0---------|----------------|----------------|----------------|
D|----0-----------|----0-4---------|----------------|----------------|    x2
A|--2-------------|--2-------------|--0-2-3---------|--0-2-3---------|
E|3---------------|3---------------|3---------------|3---------------|

G|----------------|----------------|----------------|----------------|
D|----------------|----------------|----------------|----------------|    x6
A|----------------|5-5-5-5-5-5-5-5-|3-3-3-3-3-3-3-3-|3-3-3-3-3-3-3-3-|
E|3-3-3-3-3-3-3-3-|----------------|----------------|----------------|

G|----------------|----------------|----------------|----------------|
D|----------------|----------------|----------------|----------------|
A|5-5-5-5-5-5-5-5-|5-5-5-5-5-5-5-5-|5-5-5-5-5-5-5-5-|----------------|
E|----------------|----------------|----------------|----------------|

            
            
Suggest correction
Creating personal tab
Creating personal tab
You can edit any tab online and save it as your Personal.

You can edit, replace or remove any tab part or add personal notes – all changes will be seen only by you.

Personal tabs can be accessed anytime from any device, even offline.
Learn more »
comments
print report bad tab
2 comments total.
0 reply
triki 10 Sep 18, 2016 04:57 AM

very nice tab. thanks heaps

0 reply
ShaddowWolf 47 Feb 08, 2017 12:50 AM, edited at 05:50 am

Still not a perfect tab, but it is much nicer to read than the other one!

guest
You may want to rate the tab now too:
select rating
Wanna post a correction for this tab? Suggest correction