Oops, an error
Loading. Please wait.

A Littles Enough Bass Tab

version 1
version 1

Whole song

Interactive

4,157 views 9 this week
1 commentread comment
1 2 3 4 5
excellent!
x 6
add to favorites
launch autoscroll
font size
0
reset
guitar tuner
Tab Pro tools
  • play this tab
  • loop segment
  • change instrument
  • show fretboard
  • metronome
Autoscroll
slow
fast
+/-
esc
set tempo
stop
Contributor
DjX
-------------------------------------------------------------------------------
			     A Little's Enough - Angels & Airwaves
-------------------------------------------------------------------------------

Tabbed By:DjX
e-mail:DjX7799@yahoo.com

The is a tab from Tom Delonge's new band Angels and Airwaves. Theyre an amazing group 
all of their songs are musical
masterpieces!!! Im pretty sure these all are 100% accurate but if you are to find any 
please email them to me.
(Comments good or bad are greatly appreciated!!!) Thanks and Enjoy!!! P.S Im going to 
the whole album on bass!!!

Tuning:Standard

Intro
G|---------------------------------------------------------------------------|
D|---------------------------------------------------------------------------|
A|-----------------(x2)------------------------------------------------------|
E|-2~--5~--0~--5~------------------------------------------------------------|

Verse-0:28 "When all is said and done..."
G|---------------------------------------------------------------------------|
D|---------------------------------------------------------------------------|
A|-----------------(x2)------------------------------------------------------|
E|-2~--5~--0~--5~------------------------------------------------------------|

Prechorus-0:56 "To say i..."
G|---------------------------------------------------------------------------|
D|---------------------------------------------------------------------------|
A|-------------------------------------------------------444444444444--------|
E|--222222222222--000000000000--222222222222-00000000000---------------------|

G|---------------------------------------------------------------------------|
D|---------------------------------------------------------------------------|
A|222222222222 444444444444 22222222222--------------------------------------|
E|---------------------------------------------------------------------------|

Chorus-1:24
G|---------------------------------------------------------------------------|
D|---------------------------------------------------------------------------|
A|--0~-----------------------------------------------------------------------|
E|---------------------------------------------------------------------------|

Verse 2-1:38 "Green trees were the first sign..."
G|---------------------------------------------------------------------------|
D|---------------------------------------------------------------------------|
A|---------------------------------------------------------------------------|
E|--222222222222--555555555555--000000000000--55555555555--------------------|

Prechorus-2:05 "To say i..." (straight eighth note pattern)
G|---------------------------------------------------------------------------|
D|---------------------------------------------------------------------------|
A|-------------------------------------------------------444444444444--------|
E|--222222222222--000000000000--222222222222-00000000000---------------------|

G|---------------------------------------------------------------------------|
D|---------------------------------------------------------------------------|
A|222222222222 444444444444 22222222222--------------------------------------|
E|---------------------------------------------------------------------------|

Chorus-2:33 So you can hear im..." (Let all notes ring out!)
G|---------------------------------------------------------------------------|
D|---------------------------------------------------------------------------|
A|---------------------------------------------------------------------------|
E|--5--5--5-4--4--4-2--2--2-0--0--0-5----------------------------------------|

Bridge-3:01 "A little's enough..." (Let all notes ring out!)
G|---------------------------------------------------------------------------|
D|---------------------------------------------------------------------------|
A|----2--4--2--4--5--4--2----------------------------------------------------|
E|-5-------------------------------------------------------------------------|

Chorus/Outro-3:29 "Im sorry..."
G|------------------------------------------------------------------------------|
D|------------------------------------------------------------------------------|
A|----------------------------------------------------------------55555555(x4---|
E|--5555555555555555--4444444444444444--2222222222222222--00000000--------------|

End On (Let it ring freely...)
G|---------------------------------------------------------------------------|
D|---------------------------------------------------------------------------|
A|--0~-----------------------------------------------------------------------|
E|---------------------------------------------------------------------------|

| /  slide up
|   slide down
| h  hammer-on
| p  pull-off
| ~  vibrato
| +  harmonic
| x  Mute note
===============================================================================
comments
print report bad tab
1 comment total.
0 reply
add_aodh wrote on February 16 2007, 06:43 pm

Chorus-2:33 So you can hear im..." (Let all notes ring out!)
G|---------------------------------------------------------------------------|
D|---------------------------------------------------------------------------|
A|-------------------------------5------------------------------------5------|
E|--5-------4-------2-------0---------5--------4--------2--------0-----------|

I want to post or [tab]
guest
You may want to rate the tab now too:
select rating
Please do not post tabs as comments. Select "correction" instead!