Oops, an error
Loading. Please wait.

A Littles Enough Tab

version 1
version 1

Whole song

Interactive

8,073 views 6 this week
13 commentsread comments
1 2 3 4 5
accurate
x 4
add to favorites
launch autoscroll
font size
0
reset
how to read this tab
guitar tuner
Tab Pro tools
  • play this tab
  • loop segment
  • change instrument
  • show fretboard
  • metronome
Autoscroll
slow
fast
+/-
esc
set tempo
stop
Angels & Airwaves - A Little’s Enough

intro=organ

verse
E|-------------------------------------------------------------||
B|---9h10---9h10~---9h10---9h10~---9h12---9h12~---9h10---9h10~-||
D|-9------9-------9------9-------9------9-------9------9-------||
G|-------------------------------------------------------------|| x2 (second time, skip 
A|-------------------------------------------------------------||           first fourth)
E|-------------------------------------------------------------||

Pre-chorus                          *the pre-schorus riff is really underneath the verses
E|------------------||               too, it just hard to hear and, overall, unneccesary
B|------------------||
G|------------------||
D|-9-9-9-9-9-9-9-9--||
A|--9-9-9-9-9-9-9-9-||
E|------------------||

interlude (delay effect)
E|---------------------------------------||
B|---------------------------------------||
G|---------------------------------------||
D|---------------------------------------||
A|-00000000------2222---------------0000-||
E|----------4444------22222222-0000------||
pm.......................................

verse
pre-chorus

chorus
E|------------------------------------||
B|------------------------------------||
G|-2-2---2---------------------7-7----||
D|-x-x---x-6-6---6-4-4---4-2-2-x-x-6/-||
A|-0-0~--0-x-x---x-x-x---x-x-x-5-5-x/-||
E|---------4-4~--4-2-2~--2-0-0~----4/-||

bridge=weird delay pm stuff
chorus x2
end on a octive chord

comments/questions to patheticloser96@rock.com
well, it's a start
comments
print report bad tab
13 comments total. Showing first comments.
-2 reply
musicfreak003 wrote on April 24 2006, 09:04 am

tom delonge is a dickhead he ditched blink182 for some crapband he could have sung about the war with blink182 instead of angelsandairwaves

0 reply
imburningstar4 wrote on April 27 2006, 10:25 am

stfu music freak blink 182 is dead get over it
oh yeah great tab man

0 reply
a7xtrivium wrote on April 29 2006, 10:19 am

The chorus sounds like this

Chorus
E|-------------------------------------
B|-------------------------------------
G|-------------------------7-----------
D|-7-----7-----4-----2-----x-x8--------
A|-0-x16-0-x16-0-x16-2-x8--5-----------
E|-5-----4-----2-----0-----------------

I want to post or [tab]
guest
You may want to rate the tab now too:
select rating
Please do not post tabs as comments. Select "correction" instead!