Oops, an error
Loading. Please wait.

Adventure Chords

version 1
version 1

Acoustic

Whole song

125,195 views 54 this week
21 commentsread comments
1 2 3 4 5
excellent!
x 72
add to favorites
launch autoscroll
font size
0
reset
transpose
0
reset
simplify chords
display chords
guitar tuner
Tab Pro tools
  • play this tab
  • loop segment
  • change instrument
  • show fretboard
  • metronome
×
Best way to learn
"Adventure"
Autoscroll
slow
fast
+/-
esc
set tempo
stop
Contributor
Capo
4th fret
-------------------------------------------------------------------------------
                     THE ADVENTURE – Angels And Airwaves
-------------------------------------------------------------------------------
Tabbed by: Krista
Email: leavethepieces@gmail.com

Tuning: Capo on 4th

For those of you who don't want to have to play power chords!
A nice little acoustic version. This makes the picking easier to play also.

**NOTE: Now that I-Empire is out, I just want to make it clear
that this tab is NOT based on the acoustic version you can get
as a bonus track on the CD. I tabbed this out before there was
an acoustic version, so please don't rate poorly comparing it to that.
This was an acoustic version I came up with based on the original.**


  Em7 Cadd9  G   D/F#
e|-3----3----3----3-|
B|-3----3----3----3-|
G|-0----0----0----2-|
D|-2----2----0----0-|
A|-2----3----2----0-|
E|-0----0----3----2-|


Intro:

e|------------------------------------------------------------------|
B|-----3-------3-------3-------3-------3-------3--------3-------3---|
G|---0---0---0---0---0---0---0---0---0---0---0---0----0---0---0---0-|
D|-5-------5-------4-------4-------2-------2--------4-------4-------|
A|------------------------------------------------------------------| Riff 1
E|(3)-----(3)-----(2)-----(2)-----(0)-----(0)------(2)-----(2)------| x5
  (G, D/F#, Em7, D/F#)

e|-----------------------------------------------------------------|
B|-3-3-3-1-1-1-0-0-1-1-1-0-0-0-----1-1-1-0-0-0---------------------|
G|-----------------------------0-0-------------0-0-----------------|
D|-------------------------------------------------0-0-0-----------|
A|-------------------------------------------------------3-3-3-2-2-| Riff 2
E|-----------------------------------------------------------------| x2
  Em7, Cadd9, G, D/F# x2

e|-----------------------------------------------------------------|
B|-3-----3-----3-5-1-----1-----0---3-----3-----3-5-1-----1-----0---|
G|---0-0---0-0-------0-0---0-0---0---0-0---0-0-------0-0---0-0---0-|
D|-----------------------------------------------------------------|
A|-----------------------------------------------------------------| Riff 3
E|-----------------------------------------------------------------|
  Em7, Cadd9, G, D/F#

[Riff 2]
Em7, Cadd9, G, D/F#


Verse 1:

                 Em7              Cadd9
I wanna have the same last dream again
                     G           D/F#
The one where I wake up and I'm alive
                 Em7                Cadd9
Just as the four walls close me within
                   G               D/F#
My eyes are opened up with pure sunlight
                   Em7
I'm the first to know
             Cadd9
My dearest friends
             G                    D/F#
Even if your hope has burned with time
                Em7              Cadd9
Anything that's dead shall be re-grown
                 G                  D/F#
And your vicious pain, your warning sign
            G
You will be fine


Chorus:

[Riff 1 x2 - start picking at “fine” and every chord change represents a change in the picking 
IE: G = the 5, D/F# = 4, and Em7 = the 2]

     D/F#       Em7 D/F#
Hey, oh, here I am
            G          D/F#         Em7 D/F#
And here we go, life's waiting to begin

[Riff 2 x2]
Em7, Cadd9, G, D/F# x2


Verse 2:

            Em7               Cadd9
Any type of love - it will be shown
                  G                  D/F#
Like every single tree reach for the sky
                Em7
If you're gonna fall
             Cadd9
I'll let you know
                     G
That I will pick you up
             D/F#
Like you for I
              Em7
I felt this thing
            Cadd9
I can't replace
                   G                D/F#
Where everyone was working for this goal
                       Em7            Cadd9
Where all the children left without a trace
             G                D/F#
Only to come back, as pure as gold
               G
To recite this all


Chorus:

[Riff 1 x6 - start picking at “all”]

     D/F#       Em7 D/F#
Hey, oh, here I am
            G          D/F#         Em7 D/F#
And here we go, life's waiting to begin
   G
Tonight
     D/F#       Em7 D/F#
Hey, oh, here I am
            G          D/F#         Em7 D/F#
And here we go, life's waiting to begin
   G
Tonight
     D/F#       Em7 D/F#
Hey, oh, here I am
            G          D/F#         Em7 D/F#
And here we go, life's waiting to begin


Bridge:

G        Cadd9         G
I cannot live, I can't breathe
           D/F#
Unless you do this with me
G        Cadd9         G
I cannot live, I can't breathe
           D/F#
Unless you do this with me
G        Cadd9         G
I cannot live, I can't breathe
           D/F#
Unless you do this with me
G        Cadd9         G
I cannot live, I can't breathe
           D/F#
Unless you do this with me
G        Cadd9         G
I cannot live, I can't breathe
           D/F#
Unless you do this with me
G        Cadd9         G
I cannot live, I can't breathe
           D/F#
Unless you do this with me


Chorus:

[riff 1x4]

     G D/F#   Em7   D/F#
Hey, oh, here I am (do this with me)
            G          D/F#         Em7 D/F#
And here we go, life's waiting to begin (do this with me)
     G D/F#   Em7   D/F#
Hey, oh, here I am (do this with me)
            G          D/F#         Em7
And here we go, life's waiting to begin
       D/F#         G
Life's waiting to begin.

The outro is something like this, repeating and fading out, but you could just end on G.

e|-----------------|
B|-----3-------1-0-|
G|---0---0---0-----|
D|-5-------4-------|
A|-----------------|
E|(3)-----(2)------|
comments
print report bad tab
21 comments total. Showing first comments.
+3 reply
SundaySt wrote on February 21 2007, 08:25 am

nice and simple!

+4 reply
JonnyHand wrote on February 27 2007, 01:59 pm

brilliant tab

+3 reply
bakerbordr25 wrote on April 19 2007, 08:46 pm

You are awesome. This is perfect. The only thing I don't like is the riffs. They're correct but I don't like their sound. But it's still dead on. Thanks and God Bless.

I want to post or [tab]
guest
You may want to rate the tab now too:
select rating
Please do not post tabs as comments. Select "correction" instead!