Oops, an error
Loading. Please wait.

Adventure Ukulele Chords

version 1
version 1

Whole song

302 views 3 this week
no commentswrite comment
1 2 3 4 5
please rate
add to favorites
launch autoscroll
font size
0
reset
transpose
0
reset
simplify chords
display chords
guitar tuner
Tab Pro tools
  • play this tab
  • loop segment
  • change instrument
  • show fretboard
  • metronome
×
Best way to learn
"Adventure"
Autoscroll
slow
fast
+/-
esc
set tempo
stop
Angels And Airwaves
The Adventure
We Don't Need To Whisper
2006 Geffen Records
Submitted by: paramore_fans@yahoo.com

Key: B

Tuning: Standard EADGBe

Chords used:
G#m -   466444
E -     022100
B -     x24442
F# -    244322
C#m -   x46654
F#/Bb - x143xx
B/Eb -  x698xx


Intro:

Plucking: B-F#/Bb-G#m-F#/Bb- x6
      B       F#/Bb      G#m      F#/Bb
e|-----2---|-----2---|-----2---|-----2---|
B|---0---0-|---0---0-|---0---0-|---0---0-|
G|-4-------|-3-------|-1-------|-3-------|
D|---------|---------|---------|---------|
A|---------|---------|---------|---------|
E|---------|---------|---------|---------|
      x2       x2         x2        x2


Distortion: G#m-E-B-F#- x2

Guitar 2: x2
        G#m                 E                 B               
 F#
e|-2-2-2-0-0-0-----|-0-0-0-----------|-0-0-0-----------|-----------------|
B|-------------4-4-|-------4-4-4-0-0-|-------4-4-4-0-0-|-2-2-2-----------|
G|-----------------|-----------------|-----------------|-----------------|
D|-----------------|-----------------|-----------------|-------4-4-4-2-1-|
A|-----------------|-----------------|-----------------|-----------------|
E|-----------------|-----------------|-----------------|-----------------|


G#m-E-B-F#/Bb-G#m-E-B-F#-


Guitar 2:
         G#m                E                 B               F#/Bb
e|-2-----2-----2---|-0-----0-----0---|-2-----2-----2---|-0-----0-----0---|
B|---0-0---0-0---0-|---0-0---0-0---0-|---0-0---0-0---0-|---0-0---0-0---0-|
G|-----------------|-----------------|-----------------|-----------------|
D|-----------------|-----------------|-----------------|-----------------|
A|-----------------|-----------------|-----------------|-----------------|
E|-----------------|-----------------|-----------------|-----------------|
E|-----------------|-----------------|-----------------|-----------------|


Verse 1:
I want to have the
G#m              E
same last dream again
The one where I wake
B           C#m
up and I'm alive
                 G#m
Just as the four walls
           E
close me within
                 B
My eyes are open up
             F#
with pure sunlight
                 G#m
I'm the first to know
           E
my dearest friends
             B
Even if your hope
                F#/Bb
has burned with time
               G#m
Anything thats dead
           E
shall be regrown
                 B
And your vicious pain
             F#
your warning sign
you will be fine


Chorus 1:
B     F#/Bb     G#m F#/Bb
  Hey yo Here I am
            B
And here we go life's
F#/Bb        G#m F#/Bb
waiting to begin


Interlude: G#m-E-B-F#- x2


Verse 2:
            G#m
Any type of love
           E
it will be shown
Like every single
B                   C#m
tree reach for the sky
                 G#m
If your going to fall
             E
I'll let you know
That I will pick you
B               F#
up like you for I
            G#m
I felt this thing
          E
I can't replace
Where everyone was
B                F#/Bb
working for this goal

where all the children
G#m            E
left without a trace
             B
Only to come back as pure
   F#
as gold to recite this all


Chorus 2:
B     F#/Bb     G#m F#/Bb
  Hey yo Here I am
            B
And here we go life's
F#/Bb        G#m F#/Bb
waiting to begin      tonight
B     F#/Bb     G#m F#/Bb
  Hey yo Here I am
            B
And here we go life's
F#/Bb        G#m F#/Bb
waiting to begin      tonight
B     C#m       B/Eb F#
  Hey yo Here I am
            B
And here we go life's
C#m          B/Eb F#
waiting to begin


Bridge:
B        C#m          B/Eb
I cannot live I can't breathe
           F#
unless you do this with me
(Repeat x6)


Chorus 3:
    B F#/Bb       G#m
Hey yo     here I am
 F#/Bb
(do this with me)
            B
And here we go life's
F#/Bb        G#m
waiting to begin
 F#/Bb
(do this with me)
    B F#/Bb       G#m
Hey oh     here I am
 F#/Bb
(do this with me)
            B
And here we go
       F#/Bb        G#m
life's waiting to begin
       F#/Bb        B--
Life's waiting to begin
comments
We did not receive enough feedback on this tab! Please rate:
print report bad tab
1 2 3 4 5
I want to post or [tab]
guest
You may want to rate the tab now too:
select rating
Please do not post tabs as comments. Select "correction" instead!