Oops, an error
Loading. Please wait.

Adventure Tab

version 2
version 2
27,775 views 1 this week
8 commentsread comments
1 2 3 4 5
worth learning
x 16
add to favorites
launch autoscroll
font size
0
reset
how to read this tab
guitar tuner
Tab Pro tools
  • play this tab
  • loop segment
  • change instrument
  • show fretboard
  • metronome
Autoscroll
slow
fast
+/-
esc
set tempo
stop
Contributor
The Adventure
Angels & Airwaves
Tabbed entirely by Jeff Kingsbury [kingsbury(.)jeff(@)gmail.com]

Standard Tuning



Intro

e|-------2-------2-------2-------2-------2-------2-------2-------2-----------|
B|---------------------------------------------------------------------------|
G|---4-------4-------3-------3-------1-------1-------3-------3---------------|
D|---------------------------------------------------------------------------|
A|---------------------------------------------------------------------------|
E|---------------------------------------------------------------------------|


This gets gradually louder in the intro before the chords start
Played with delay.
e|---------------------------------------------------------------------------|
B|----5-4h5-4h5-4------------------------------------------------------------|
G|----------------4--3-------------------------------------------------------|
D|---------------------------------------------------------------------------|
A|---------------------------------------------------------------------------|
E|---------------------------------------------------------------------------|



Second part of pre-chorus and Verses
Each chord is played 8 times with alternate picking (When the drums come in)
e|---------------------------------------------------------------------------|
B|---------------------------------------------------------------------------|
G|-------11--4---------------------------------------------------------------|
D|---6---11--4---4-----------------------------------------------------------|
A|---6---9---2---4-----------------------------------------------------------|
E|---4-----------2-----------------------------------------------------------|


A different guitar plays this part at the same time
e|---------------------------------------------------------------------------|
B|---------------------------------------------------------------------------|
G|-------11--4---4-----------------------------------------------------------|
D|---6---11--4---4-----------------------------------------------------------|
A|---6---9---2---1-----------------------------------------------------------|
E|---4-----------------------------------------------------------------------|



Played over the chords in the second part of the intro
e|---2--0-----0---------0----------------------------------------------------|
B|---------4------4--0-----4--0--2~------------------------------------------|
G|---------------------------------------------------------------------------|
D|---------------------------------------------------------------------------|
A|---------------------------------------------------------------------------|
E|---------------------------------------------------------------------------|



Also with delay, layered over the 3rd time the intro after the drums come in 
plays.
e|---2-------2-------2-----0--------0----------------------------------------|
B|------------------------------------------4--------------------------------|
G|------4--4----4--4----4-----4--4----4--4-----------------------------------|
D|---------------------------------------------------------------------------|
A|---------------------------------------------------------------------------|
E|---------------------------------------------------------------------------|


A lot of these little bits of delay stuff are layered over into the song at
many places.


Chorus
"Hello, here I am........life's waiting to begin
e|-------2-------2-------2-------2-------2-------2-------2-------2-----------|
B|---------------------------------------------------------------------------|
G|---4-------4-------3-------3-------1-------1-------3-------3---------------|
D|---------------------------------------------------------------------------|
A|---------------------------------------------------------------------------|
E|---------------------------------------------------------------------------|


Right after chorus
e|---2--0-----0~-----0-------------------------------------------------------|
B|---------4------------4--0--2~---------------------------------------------|
G|---------------------------------------------------------------------------|
D|---------------------------------------------------------------------------|
A|---------------------------------------------------------------------------|
E|---------------------------------------------------------------------------|



Bridge Part 1
Each chord is played 8 times.
"I can't breathe.......unless you do this with me."
e|---------------------------------------------------------------------------|
B|---------------------------------------------------------------------------|
G|---------------------------------------------------------------------------|
D|--9---9---9---9------------------------------------------------------------|
A|--9---7---6---x------------------------------------------------------------|
E|--------------9------------------------------------------------------------|


Bridge Part 2
Each chord played 8 times
e|---------------------------------------------------------------------------|
B|---------------------------------------------------------------------------|
G|---------------------------------------------------------------------------|
D|---9---8---6---------------------------------------------------------------|
A|---9---8---6---------------------------------------------------------------|
E|---7---6---4---------------------------------------------------------------|



Outro  
Over and over with delay
e|---------------------------------------------------------------------------|
B|----5-4h5-4h5-4------------------------------------------------------------|
G|----------------4--3-------------------------------------------------------|
D|---------------------------------------------------------------------------|
A|---------------------------------------------------------------------------|
E|---------------------------------------------------------------------------|
comments
print report bad tab
8 comments total. Showing first comments.
0 reply
livefastdiefun wrote on February 6 2006, 09:50 am

completely wrong man

0 reply
sonixon wrote on February 6 2006, 10:29 am

No it's not....

You want to point out something that's wrong specifically? The song has many layers to it.

0 reply
gep1290 wrote on February 7 2006, 08:05 pm

I think ur guitar was out of tune when you tabbed this...this is bad.

I want to post or [tab]
guest
You may want to rate the tab now too:
select rating
Please do not post tabs as comments. Select "correction" instead!