Oops, an error
Loading. Please wait.

Adventure Bass Tab

version 4
version 4
897 views 3 this week
1 commentread comment
1 2 3 4 5
please rate
add to favorites
launch autoscroll
font size
0
reset
guitar tuner
Tab Pro tools
  • play this tab
  • loop segment
  • change instrument
  • show fretboard
  • metronome
×
Best way to learn
"Adventure"
Autoscroll
slow
fast
+/-
esc
set tempo
stop
Contributor
Hey, this is my first tab. Hope you guys enjoy! I'm brazilian, sorry for my bad english.

Intro (0:47)

G------------------------------------------------------------------|
D------------------------------------------------------------------|   (x4)
A-----------------7-7-7-7-7-7/9-9-2-2-2-2-2-2-2-2------------------|
E-4-4-4-4-4-4-4-4----------------------------------2-2-2-2-2-2-2-2-|


Verse (Starts at 01:14. Listen to the drums for timing)

G|----------------------|   (x4)
D|----------------------|
A|-------7~-----2~------|
E|-4~-----------------2~|

Then... (01:40)

G|-----------------------------|
D|-----------------------------|
A|-----------------------------|
E|-4-4-4~----------------------|


Rest during the 1st Chorus ("Hey oh, here I am...") then repeat Intro and Verse


2ND Chorus / Bridge

Bass starts at 3:00

G|----------------------------|
D|-9(x8)-11(x8)-13(x8)-11(x8)-|   (x4)
A|----------------------------|
E|----------------------------|


then....(11, 13 and 14 not 1-1, 1-3 and 1-4)

G|-------------------------------------------------------------------|
D|--9---------9---11---------11---13-----------13-14--11--------9----|
A|-------9-------------9----------------9-------------------9--------|  (x2)
E|-------------------------------------------------------------------|

Back to this (3:40)

G|----------------------------|
D|-9(x8)-11(x8)-13(x8)-11(x8)-|   (x2)
A|----------------------------|
E|----------------------------|


Ending  3:54  (timing is similar to the verse. Pay attention to the drums and you will get it.)

G|-------------------------------|
D|-------------------------------|  (x4)
A|-------------------------------|
E|--7~-----6~-----4~-----6~------|

G|-----------------------------|
D|-----------------------------|
A|-----------------------------|
E|--6-6-7~---------------------|
comments
We did not receive enough feedback on this tab! Please rate:
print report bad tab
1 2 3 4 5
1 comment total.
0 reply
LIOwolverine wrote on August 3 2014, 02:04 am

Great tab! Perfect!

I want to post or [tab]
guest
You may want to rate the tab now too:
select rating
Please do not post tabs as comments. Select "correction" instead!