Oops, an error
Loading. Please wait.

Adventure Tab

version 6
version 6
548 views 1 this week
no commentswrite comment
1 2 3 4 5
please rate
add to favorites
launch autoscroll
font size
0
reset
how to read this tab
guitar tuner
Tab Pro tools
  • play this tab
  • loop segment
  • change instrument
  • show fretboard
  • metronome
Autoscroll
slow
fast
+/-
esc
set tempo
stop
Contributor
THE ADVENTURE

INTRO RHYTHM GUITAR (DAVID KENNEDY) 
e|-----------------------------|
B|-----------------------------|
G|----11----11---11---11---11--|
D|--9-----9----8-----8---6-----|
A|-----------------------------|
E|-----------------------------|

e|-----------------------------|
B|-----------------------------|
G|-11--------------------------|
D|6----------------------------|
A|-----------------------------|
E|-----------------------------| 5X
 
INTRO LEAD (TOM DELONGE) PM W/ DELAY
e|-----------------------------|
B|-----------------------------|
G|-----11-------9-8------------|
D|-9-9----9-8-8----------------|
A|-----------------------------|
E|-----------------------------| (PLAYED THROUGHOUT INTRO)

PRE-VERSE RHYTHM GUITAR (DAVID KENNEDY)
e|-----------------------------|
B|-----------------------------|
G|-----9-----------------------|
D|-6---9---9---4---------------|
A|-6---7---9---4---------------|
E|-4---0---7---2---------------| (!PLAYED UNTIL CHORUS 1!)

PRE-VERSE LEAD (TOM DELONGE)
e|-----------------------------|
B|-----------------------------|
G|11-11-11-9-9-9-8-8-9-9-9-8-8-|
D|-----------------------------|
A|-----------------------------|
E|-----------------------------|

e|-----------------------------|
B|-----------------------------|
G|8----9-9-9-8-8-8-------------|
D|--9-9-----------9-9----------|
A|-----------------------------|
E|-----------------------------|

e|-----------------------------|
B|-----------------------------|
G|-----------------------------|
D|-----------------------------|
A|-9-9-9--7-7-7--6-6-----------|
E|-----------------------------|

e|-----------------------------|
B|-----------------------------|
G|11-11-11-9-9-9-8-8-9-9-9-8-8-|
D|-----------------------------|
A|-----------------------------|
E|-----------------------------|

e|-----------------------------|
B|-----------------------------|
G|8----9-9-9-8-8-8-------------|
D|--9-9-----------9-9----------|
A|-----------------------------|
E|-----------------------------|

e|-----------------------------|
B|-----------------------------|
G|-----------------------------|
D|-----------------------------|
A|-9-9-9--7-7-7--6-6-----------|
E|-----------------------------| 

e|-----------------------------|
B|------------------9----------|
G|-11-----11-----11---8--------|
D|----9-9----9-9--------9-9----|
A|-----------------------------|
E|-----------------------------| 

e|-----------------------------|
B|-----------------------------|
G|-8-----8-6-----6-----8-6-----|
D|---9-9-----9-9---9-9-----9-9-|
A|-----------------------------|
E|-----------------------------| 

e|-----------------------------|
B|-----------------------------|
G|11-11-11-9-9-9-8-8-9-9-9-8-8-|
D|-----------------------------|
A|-----------------------------|
E|-----------------------------|

e|-----------------------------|
B|-----------------------------|
G|8----9-9-9-8-8-8-------------|
D|--9-9-----------9-9----------|
A|-----------------------------|
E|-----------------------------|

e|-----------------------------|
B|-----------------------------|
G|-----------------------------|
D|-----------------------------|
A|-9-9-9--7-7-7--6-6-----------|
E|-----------------------------|

VERSE 1 LEAD (TOM DELONGE)
e|-----------------------------|
B|-----------------------------|
G|------------------------8-9-8|
D|-9-9-9-9-9-9-9-9-9-9-9-9-----| <--- Play 3 times
A|-----------------------------|
E|-----------------------------| 

e|-----------------------------|
B|-----------------------------|
G|------------------------8-9-8|
D|-9-9-9-9-9-9-9-9-9-9-9-9-----| 
A|-----------------------------|
E|-----------------------------|

e|-----------------------------|
B|-----------------------------|
G|-----------------------------|
D|-9-9-9-9-9-9-9-9-9-9-9-9-11--| 
A|-----------------------------|
E|-----------------------------|

e|-----------------------------|
B|-----------------------------|
G|-----------------------------|
D|-11-11-11-11-11-11-----------| 
A|-----------------------------|
E|-----------------------------|

e|-----------------------------|
B|-----------------------------|
G|------------------------8-9-8|
D|-9-9-9-9-9-9-9-9-9-9-9-9-----| <--- Play 3 times
A|-----------------------------|
E|-----------------------------| 

e|-----------------------------|
B|-----------------------------|
G|------------------------8-9-8|
D|-9-9-9-9-9-9-9-9-9-9-9-9-----| 
A|-----------------------------|
E|-----------------------------|

e|-----------------------------|
B|-----------------------------|
G|-----------------------------|
D|-9-9-9-9-9-9-9-9-9-9-9-9-11--| 
A|-----------------------------|
E|-----------------------------|

e|-----------------------------|
B|-----------------------------|
G|-----------------------------|
D|-11-11-11-11-11-11-----------| 
A|-----------------------------|
E|-----------------------------|


CHORUS 1 RHYTHM GUITAR (DAVID KENNEDY) 
e|-----------------------------|
B|-----------------------------|
G|----11----11---11---11---11--|
D|--9-----9----8-----8---6-----|
A|-----------------------------|
E|-----------------------------|

e|-----------------------------|
B|-----------------------------|
G|-11--------------------------|
D|6----------------------------|
A|-----------------------------|
E|-----------------------------| X2

PRE-VERSE 2 LEAD (TOM DELONGE)
e|-----------------------------|
B|-----------------------------|
G|11-11-11-9-9-9-8-8-9-9-9-8-8-|
D|-----------------------------|
A|-----------------------------|
E|-----------------------------|

e|-----------------------------|
B|-----------------------------|
G|8----9-9-9-8-8-8-------------|
D|--9-9-----------9-9----------|
A|-----------------------------|
E|-----------------------------|

e|-----------------------------|
B|-----------------------------|
G|-----------------------------|
D|-----------------------------|
A|-9-9-9--7-7-7--6-6-----------|
E|-----------------------------|

e|-----------------------------|
B|-----------------------------|
G|11-11-11-9-9-9-8-8-9-9-9-8-8-|
D|-----------------------------|
A|-----------------------------|
E|-----------------------------|

e|-----------------------------|
B|-----------------------------|
G|8----9-9-9-8-8-8-------------|
D|--9-9-----------9-9----------|
A|-----------------------------|
E|-----------------------------|

e|-----------------------------|
B|-----------------------------|
G|-----------------------------|
D|-----------------------------|
A|-9-9-9--7-7-7--6-6-----------|
E|-----------------------------|


VERSE 2 RHYTHM GUITAR (DAVID KENNEDY)
e|-----------------------------|
B|-----------------------------|
G|-----9-----------------------|
D|-6---9---9---4---------------|
A|-6---7---9---4---------------|
E|-4---0---7---2---------------| (repeat till chorus)

VERSE 2 LEAD (TOM DELONGE)
e|-----------------------------|
B|-----------------------------|
G|------------------------8-9-8|
D|-9-9-9-9-9-9-9-9-9-9-9-9-----| < PLAY 3 TIMES X3
A|-----------------------------|
E|-----------------------------| 

e|-----------------------------|
B|-----------------------------|
G|------------------------8-9-8|
D|-9-9-9-9-9-9-9-9-9-9-9-9-----| 
A|-----------------------------|
E|-----------------------------|

e|-----------------------------|
B|-----------------------------|
G|-----------------------------|
D|-9-9-9-9-9-9-9-9-9-9-9-9-11--| 
A|-----------------------------|
E|-----------------------------|

e|-----------------------------|
B|-----------------------------|
G|-----------------------------|
D|-11-11-11-11-11-11-----------| 
A|-----------------------------|
E|-----------------------------| 

e|-----------------------------|
B|-----------------------------|
G|------------------------8-9-8|
D|-9-9-9-9-9-9-9-9-9-9-9-9-----| < PLAY 3 TIMES X3
A|-----------------------------|
E|-----------------------------| 

e|-----------------------------|
B|-----------------------------|
G|-----------------------------|
D|-9-9-9-9-9-9-9-9-9-9-9-9-11--| 
A|-----------------------------|
E|-----------------------------|

e|-----------------------------|
B|-----------------------------|
G|-----------------------------|
D|-11-11-11-11-11-11-----------| 
A|-----------------------------|
E|-----------------------------|

cHORUS 2 RHYTHM GUITAR (DAVID KENNEDY) 
e|-----------------------------|
B|-----------------------------|
G|----11----11---11---11---11--|
D|--9-----9----8-----8---6-----|
A|-----------------------------|
E|-----------------------------|]
                                X5
e|-----------------------------|]
B|-----------------------------|
G|-11--------------------------|
D|6----------------------------|
A|-----------------------------|
E|-----------------------------| 

CHORUS 3 RHYTHM GUITAR (DAVID KENNEDY)
e|-----------------------------|
B|-----------------------------| 
G|-11--11-11-11--9-9-9-9---8-8-| PART A 
D|--X--X--X--X---X-X-X-X---X-X-| 
A|--9--9--9--9---7-7-7-7---6-6-|
E|-----------------------------|]
                                 PART A OF CHORUS 3 X6
e|-----------------------------|]
B|-----------------------------|
G|-8-8---6-6-6-6---------------|
D|-X-X---X-X-X-X---------------|
A|-6-6---4-4-4-4---------------|
E|-----------------------------| 

CHORUS 3 RHYTHM GUITAR (DAVID KENNEDY)
e|-----------------------------|
B|-----------------------------|
G|-----9-----------------------| PART B 5X
D|-6---9---9---4---------------|
A|-6---7---9---4---------------|
E|-4---0---7---2---------------|
 
CHORUS 3 LEAD (TOM DELONGE)
e|-14--------------------------|
B|----12--14--12--11--12-------|
G|-----------------------------|
D|-----------------------------|
A|-----------------------------|
E|-----------------------------| PLAYED UNTIL OUTRO

OUTRO LEAD (TOM DELONGE) PM W/ DELAY
e|-----------------------------|
B|-----------------------------|
G|-----11-------9-8------------|
D|-9-9----9-8-8----------------|
A|-----------------------------|
E|-----------------------------|
comments
We did not receive enough feedback on this tab! Please rate:
print report bad tab
1 2 3 4 5
I want to post or [tab]
guest
You may want to rate the tab now too:
select rating
Please do not post tabs as comments. Select "correction" instead!