Oops, an error
Loading. Please wait.

Anxiety Bass Tab

version 1
version 1

Whole song

Interactive

3,497 views 1 this week
2 commentsread comments
1 2 3 4 5
accurate
x 3
add to favorites
launch autoscroll
font size
0
reset
guitar tuner
Tab Pro tools
  • play this tab
  • loop segment
  • change instrument
  • show fretboard
  • metronome
×
Best way to learn
"Anxiety"
Autoscroll
slow
fast
+/-
esc
set tempo
stop
Contributor
Difficulty
intermediate
I don't think this is how Matt plays it, but it goes well with the song and it's rather 
fun to play. :D
And it's not as complex as the actual way of playing it,
so here it is for people who want to play it easily.
And this is my first tab, Enjoy!

STANDARD TUNING


INTRO
||-----------------|----------------|----------------|----------------||
||-----------------|----------------|----------------|----------------||
||--------3--------|--3--5--7--8----|--------3-------|--3--5--7--8----||
||--3--5-----1-----|----------------|--3--5-----1----|----------------||

INSTRUMENTAL 0:41
||----------------|---------------|----------------|--------------------||
||----------------|---------------|----------------|--------------------||
||3-3-3-3-3---3---|5-5-5-5-5-3-5-3|7-7-7-7-7-10-9-7|8-8-8-8-8-8-8-10-10\||
||----------3---3-|---------------|----------------|--------------------|| X2

VERSE
||-----------------|----------------|----------------|------------------||
||-----------------|----------------|----------------|------------------||
||3-3-3-3-3-3-3-3--|-5-5-5-5-5-5-5-5|-7-7-7-7-7-7-7-7|-8-8-8-8-8-8-8-8-8||
||-----------------|----------------|----------------|------------------|| X4

CHORUS
||-----------------|----------------|----------------|---------------||
||-----------------|----------------|----------------|---------------||
||--------3--------|--3--5--7--8----|--------3-------|--3--5--7--8---||
||--3--5-----1-----|----------------|--3--5-----1----|---------------|| X2


INSTRUMENTAL X2
VERSE X4
CHORUS X4

BRIDGE
||-----------------|-----------------|----------------|------------------||
||-----------------|-----------------|----------------|------------------||
||-0~--------------|-0---2~----------|-0h2/-3~--------|-3p2-5~--------7\-||
||-----------------|---3-------------|----------------|------------------|| X4


CHORUS X4

END
||-----||
||-----||
||-3~--||
||-----||
comments
We did not receive enough feedback on this tab! Please rate:
print report bad tab
1 2 3 4 5
2 comments total.
0 reply
nicklopeke wrote on October 28 2011, 08:02 pm

Intro, Chorus, and Bridge are good! However, the instrumental part and verse are incorrect. Here are the corrections:

Instrumental 0:41
G|-----------------------------------
D|-----------------------------------
A|-333333-555555-101010101010-888888-
E|-----------------------------------

Verse
G|-----------------------------------
D|-----------------------------------
A|-00000000-2222222-33333333-5555555-
E|-----------------------------------

0 reply
Pantyer2 wrote on April 16 2012, 07:30 pm

Yes, I thought it might have been, my friend said otherwise than to that one, thank you for responding. xD

I want to post or [tab]
guest
You may want to rate the tab now too:
select rating
Please do not post tabs as comments. Select "correction" instead!