Oops, an error
Loading. Please wait.

Anxiety Tab

version 2
version 2

Whole song

Interactive

Video

12,175 views 15 this week
no commentswrite comment
1 2 3 4 5
accurate
x 12
add to favorites
launch autoscroll
font size
0
reset
how to read this tab
guitar tuner
Tab Pro tools
  • play this tab
  • loop segment
  • change instrument
  • show fretboard
  • metronome
×
Best way to learn
"Anxiety"
Autoscroll
slow
fast
+/-
esc
set tempo
stop
Contributor
Difficulty
novice
This is my second atb i have made on this website, so i just hope you all enjoy it , thanks :)

Intro Riff (This fades in and lightly palmed and none palm muted before the main melody kicks in).

E---------------------| X3  --------------------------|
B---------------------|     --------------------------|
G--10-10-10-9-9-9-9-9-|     --12-12-12----------------|
D---------------------|     -----------10-10-10-10-10-|
A---------------------|     --------------------------|
E---------------------|     --------------------------|

Main Melody

E---------------------------------|  X2  -----------------------------------|
B---------------------------------|      -----------------------------------|
G--------9-10-9----9-------9------|      -------9-12-10-9---9-------9-------| 
D--10-12--------12---12-10---12-10|      -10-12-----------12--10--12-10-----|
A---------------------------------|      -----------------------------------|
E---------------------------------|      -----------------------------------|

E---------------------------------|
B---------------------------------| 
G--------9-10-9----9-------9------|
D--10-12--------12---12-10---12-10| 
A---------------------------------|
E---------------------------------|  

Chords behind the main melody

E-------------|
B-------------|
G-5--7--2-----|
D-5--7--2--3--|
A-3--5--0--3--|
E----------1--|

 C5 D5 A5 F5

Verse 1 & 2 (All Palm muted)

E---------------------------------|
B---------------------------------|
G-2222222244444444555555557777777-|
D-2222222244444444555555557777777-|
A-0000000022222222333333335555555-|
E---------------------------------|
  A5       B5      C5     D5


Chorus (All Chorus's)

E----------------------------------------------|  
B----------------------------------------------|
G-----2--5-----------5--7--9--1010101010101010-|
D--5--2--5--33333333-5--7--9--1010101010101010-|
A--5--0--3--33333333-3--5--7--8-8-8-8-8-8-8-8--| 
E--3--------11111111---------------------------|
  G5 A5 C5  F5      C5 D5 E5  F5  

Brigde Riff

E-----------------|
B-----------------|
G-------7------5--|
D----5------5-----|
A--3------3-------|
E-----------------|
    
comments
print report bad tab
I want to post or [tab]
guest
You may want to rate the tab now too:
select rating
Please do not post tabs as comments. Select "correction" instead!