Oops, an error
Loading. Please wait.

Anxiety Tab

version 4
version 4

Whole song

Interactive

Video

215 views 3 this week
no commentswrite comment
1 2 3 4 5
please rate
add to favorites
launch autoscroll
font size
0
reset
how to read this tab
guitar tuner
Tab Pro tools
  • play this tab
  • loop segment
  • change instrument
  • show fretboard
  • metronome
×
Best way to learn
"Anxiety"
Autoscroll
slow
fast
+/-
esc
set tempo
stop
Contributor
-----------------------------------------------------------------------------
                             Anxiety - Angels & Airwaves
-----------------------------------------------------------------------------
Tabbed by: Lexi_The_Rocker
E-mail:

Tuning: Standard

intro bell sounds. optional. guitar one 0:07
e|--------------------------------------------------------------------------|
B|---8----------------------------------------------------------------------|
G|------9-------------------------------------------------------------------|
D|---------10---------------------------------------------------------------|
A|--------------------------------------------------------------------------|
E|--------------------------------------------------------------------------|
repeat for as long as you think right

meanwhile guitar two
e|--------------------------------------------------------------------------|
B|--------------------------------------------------------------------------|
G|----999999999999----------------------------------------------------------|
D|--------------------------------------------------------------------------|
A|--------------------------------------------------------------------------|
E|--------------------------------------------------------------------------|
also continue as long as you chose

guitar one transitions to: INTRO2*
e|--------------------------------------------------------------------------|
B|----------------------6-6666----------------------------------------------|
G|--9-9999---7-77777------------5-55555---9-9999---7-77777---9-9999---------|
D|--------------------------------------------------------------------------|
A|--------------------------------------------------------------------------|
E|--------------------------------------------------------------------------|

----------------------------------------------------------------------------|
--------------------------------6-6666--------------------------------------|
--7-77777---9-9999---7-77777------------5-55555---9-9999---7-77777---9-9999-|
----------------------------------------------------------------------------|
----------------------------------------------------------------------------|
----------------------------------------------------------------------------|

----------------------------------------------------------------------------|
-------------------------------6-6666---------------------------------------|
--7-77777---9-9999---7-77777------------5-55555---9-9999---7-77777---9-9999-|
----------------------------------------------------------------------------|
----------------------------------------------------------------------------|
----------------------------------------------------------------------------|

----------------------------------------------------------------------------|
-------------------------------6-6666---------------------------------------|
--7-77777---9-9999---7-77777------------5-55555---9-9999---7-77777---9-9999-|
----------------------------------------------------------------------------|
----------------------------------------------------------------------------|
----------------------------------------------------------------------------|

---------------------------------------------------------------------------|
---------------------------------------------------------------------------|
--7-77777---9-9999---7-7777---10-10-9---7-777777---5/-9-7-5----------------|
---------------------------------------------------------------------------|
---------------------------------------------------------------------------|
---------------------------------------------------------------------------|

---------------------------------------------------------------------------|
---------------------------------------------------------------------------|
--9-9999---7-77777---10-10-9---7-777777---5/-9-7-5-------------------------|
---------------------------------------------------------------------------|
---------------------------------------------------------------------------|
---------------------------------------------------------------------------|

---------------------------------------------------------------------------|
---------------------8888--------------------------------------------------|
--9-9999---7-7777-9--------10-9--7-777777---5/-9-7-5-7-9--5----------------|
---------------------------------------------------------------------------|
---------------------------------------------------------------------------|
---------------------------------------------------------------------------|

---------------------------------------------------------------------------|
---------------------------------------------------------------------------|
--9-9999---7-77777---10-10-9---7-777777---5/-9-7-5-------------------------|
---------------------------------------------------------------------------|
---------------------------------------------------------------------------|
---------------------------------------------------------------------------|

around the middle of INTRO2* guitar two comes in with:
0:41
e|--------------------------------------------------------------------------|
B|--------------------------------------------------------------------------|
G|--5---7-------------------------------------------------------------------|
D|--5---7---7---3------------X4---------------------------------------------|
A|--3---5---7---3-----------------------------------------------------------|
E|----------5---1-----------------------------------------------------------|

1:10 palm mute
e|--------------------------------------------------------------------------|
B|--------------------------------------------------------------------------|
G|-----------444444---555555---777777---------------------------------------|
D|--777777---444444---555555---777777------------X4-------------------------|
A|--777777---222222---333333---577777---------------------------------------|
E|--555555------------------------------------------------------------------|
    xxxxxx   xxxxxx   xxxxxx   xxxxxx

1:38
e|--------------------------------------------------------------------------|
B|--------------------------------------------------------------------------|
G|-----------5---------5---7---9---10---------------------------------------|
D|---5---7---5---3-----5---7---9---10-----------X2--------------------------|
A|---5---7---3---3-----3---5---7---8----------------------------------------|
E|---3---5-------1----------------------------------------------------------|

1:53 guitar two plays
e|----------------------------------------------------|
B|----------------------------------------------------|
G|--5---7---------------------------------------------|
D|--5---7---7---3------------X4-----------------------|
A|--3---5---7---3-------------------------------------|
E|----------5---1-------------------------------------| while guitar one plays:
E|----------------------------------------------------|
B|----------------------------------------------------|
G|---9-9999---7-7777---10-10-9---7-777777---5/-9-7-5--|
D|----------------------------------------------------|
A|----------------------------------------------------|
E|----------------------------------------------------|

---------------------------------------------------------------------------|
---------------------------------------------------------------------------|
--9-9999---7-77777---10-10-9---7-777777---5/-9-7-5-------------------------|
---------------------------------------------------------------------------|
---------------------------------------------------------------------------|
---------------------------------------------------------------------------|

2:08 palm mute
e|--------------------------------------------------------------------------|
B|--------------------------------------------------------------------------|
G|-----------444444---555555---777777---------------------------------------|
D|--777777---444444---555555---777777------------X4-------------------------|
A|--777777---222222---333333---577777---------------------------------------|
E|--555555------------------------------------------------------------------|
    xxxxxx   xxxxxx   xxxxxx   xxxxxx

2:36
e|--------------------------------------------------------------------------|
B|--------------------------------------------------------------------------|
G|-----------5---------5---7---9---10-----------------------5---------------|
D|---5---7---5---3-----5---7---9---10-----------X4----------5---------------|
A|---5---7---3---3-----3---5---7---8------------------------3---------------|
E|---3---5-------1----------------------------------------------------------|

3:05 guitar one plays:   optional
e|--------------------------------------------------------------------------|
B|--------------------------------------------------------------------------|
G|---5---7-------4----------------------X4----------------------------------|
D|---5---7---7---4----------------------------------------------------------|
A|---3---5---7---2----------------------------------------------------------|
E|-----------5--------------------------------------------------------------|
::::hardly audible::::

3:05 - 3:32 while guitar one or three plays:
e|--------------------------------------------------------------------------|
B|--------------------------------------------------------------------------|
G|--9999999999--------------------------------------------------------------|
D|--------------------------------------------------------------------------|
A|--------------------------------------------------------------------------|
E|--------------------------------------------------------------------------|
this played for the duration of the above and the following

guitar two plays:
e|--------------------------------------------------------------------------|
B|--------5--1-----5--------------------------------------------------------|
G|---------------------5---------------------X4-----------------------------|
D|--------------------------------------------------------------------------|
A|----3---------3-----------------------------------------------------------|
E|--------------------------------------------------------------------------|

3:34
e|--------------------------------------------------------------------------|
B|--------------------------------------------------------------------------|
G|-----------5---------5---7---9---10-------------------------5-------------|
D|---5---7---5---3-----5---7---9---10-----------X4------------5-------------|
A|---5---7---3---3-----3---5---7---8--------------------------3-------------|
E|---3---5-------1----------------------------------------------------------|

The End
Hope you found this tab helpful and I'm sorry if it's not. I tried my hardest and this 
is the first tab I have written. Good luck to you

************************************

| /   slide up
| \   slide down
| h   hammer-on
| p   pull-off
| ~   vibrato
| +   harmonic
| x   Mute note
| X   Times
| b   Bend
| pb  Pre-bend
| br  Bend release
| pbr Pre-bend release
| brb Bend release bend

************************************
comments
We did not receive enough feedback on this tab! Please rate:
print report bad tab
1 2 3 4 5
I want to post or [tab]
guest
You may want to rate the tab now too:
select rating
Please do not post tabs as comments. Select "correction" instead!