Oops, an error
Loading. Please wait.

Breathe Tab

version 1
version 1

Whole song

Interactive

13,946 views 6 this week
11 commentsread comments
1 2 3 4 5
accurate
x 5
add to favorites
launch autoscroll
font size
0
reset
how to read this tab
guitar tuner
Tab Pro tools
  • play this tab
  • loop segment
  • change instrument
  • show fretboard
  • metronome
×
Best way to learn
"Breathe"
Autoscroll
slow
fast
+/-
esc
set tempo
stop
Contributor
Difficulty
intermediate
INTRO AND VERSE (0:10) (repeat a few times)
|---5--5--------5--5---------|
|----------------------------|
|----------------------------|
|----------------------------|
|----------------------------|
|----------------------------|

CHORUS GUITAR 1 (1:03) (repeat a few times)
|----------------------------------------------|
|----------------------------------------------|
|-----7--6--5-7--6--5-7--6--5-7--6--5----------|
|----------------------------------------------|
|----------------------------------------------|
|----------------------------------------------|

CHORUS GUITAR 2 (1:03) (repeat a few times)
|----------------------------------------------|
|----2-2-2-2-2-2-2-2---3-3-3-3-3-3-3-3---------|
|----2-2-2-2-2-2-2-2---2-2-2-2-2-2-2-2---------|
|----2-2-2-2-2-2-2-2---0-0-0-0-0-0-0-0---------|
|----0-0-0-0-0-0-0-0---------------------------|
|----------------------------------------------|

INTRO AND VERSE (1:38 ) (repeat a few times)

CHORUS GUITAR 1 AND 2 (2:32) (repeat a few times)

SOLO (3:07) (repeat 2 times)
|---------------------------------------------------------------------|
|---------------------------------------------------------------------|
|----6--6-----6/7----7/9----6/7---7/6-6---6/7---7/9---6/7---7/6-------|
|---------------------------------------------------------------------|
|------------0-------0-------0-----0------0-------0------0-----0------|
|---------------------------------------------------------------------|

CHORUS GUITAR 1 AND 2 (3:43) (repeat a few times)

OUTRO (4:18 ) (alternating P.M.) (repeat a few times)
|-------------------------------------------------------------------------|
|-------------------------------------------------------------------------|
|----22222222222222222-------------222222222222222------------------------|
|----22222222222222222-------------222222222222222------------------------|
|-------------------------------00000---------------------------00000-----|
|-------------------------------------------------------------------------|

OUTRO GUITAR 2 (4:36) (repeat a few times)
|-------------------------------------------------------------------------------|
|----2------4------7-----4-----2-----4-----7-----4------------------------------|
|----2------4------7-----4-----2-----4-----7-----4------------------------------|
|----2------4------7-----4-----2-----4-----7-----4------------------------------|
|----0------2------5-----2-----0-----2-----5-----2------------------------------|
|-------------------------------------------------------------------------------|

FINAL CHORD (5:29)
|-------|
|---2---|
|---2---|
|-------|
|-------|
|-------|
comments
print report bad tab
11 comments total. Showing first comments.
0 reply
Blnkone82rulz wrote on October 31 2007, 09:31 pm

im pretty sure in the chorus guitar 1 is more like this and im pretty sure its palm muted
e-------------------|
B-------------------|
G-----7-6----7-6----|
D-7-7------7--------| im pretty sure its just that over and over again
A-------------------|
E-------------------|

0 reply
boybrshedred777 wrote on November 16 2007, 10:33 pm

Dude some of your notes on there arent even close and are not in the same key... so you might wanna fix that.

0 reply
AzzoLovesBirdy wrote on December 6 2007, 08:17 pm

I think he did a pretty good skeleton of it. It's definitely scale A. I managed to make my own verson from this.

I want to post or [tab]
guest
You may want to rate the tab now too:
select rating
Please do not post tabs as comments. Select "correction" instead!