Oops, an error
Loading. Please wait.

Breathe Tab

version 2
version 2

Whole song

Interactive

17,536 views 6 this week
3 commentsread comments
1 2 3 4 5
excellent!
x 5
add to favorites
launch autoscroll
font size
0
reset
how to read this tab
guitar tuner
Tab Pro tools
  • play this tab
  • loop segment
  • change instrument
  • show fretboard
  • metronome
Autoscroll
slow
fast
+/-
esc
set tempo
stop
Difficulty
novice
-------------------------------------------------------------------------------
                             Breath - Angels And Airwaves
-------------------------------------------------------------------------------
Tabbed by: Pakkun182
Email: paul_sk8er182@hotmail.com

Tuning: EADGBe

Intro/Verse

Guitar 1
e|---------------------------------------------------------------------------|
B|-10-10-----10-10-----------------------------------------------------------|
G|---------------------------------------------------------------------------|
D|---------------------------------------------------------------------------|
A|---------------------------------------------------------------------------|
E|---------------------------------------------------------------------------|

Keyboard - Guitar Version
e|---------------------------------------------------------------------------|
B|---------------------------------------------------------------------------|
G|---------------------------------------------------------------------------|
D|-7-----9-7------9-7--------------------------------------------------------|
A|---------------------4-5---------------------------------------------------|
E|---------------------------------------------------------------------------|

REPEAT UNTIL CHORUS

Chorus

Guitar 1
e|---------------------------------------------------------------------------|
B|---------------------------------------------------------------------------|
G|--22222222-77777777--------------------------------------------------------|
D|--xxxxxxxx-xxxxxxxx--------------------------------------------------------|
A|--00000000-55555555--------------------------------------------------------|
E|---------------------------------------------------------------------------|

Guitar 2
e|---------------------------------------------------------------------------|
B|---------------------------------------------------------------------------|
G|--7-6---7-6-7-6---7-6------------------------------------------------------|
D|------7---------7----------------------------------------------------------|
A|---------------------------------------------------------------------------|
E|---------------------------------------------------------------------------|
PM ....................

BACK TO VERSE


Bridge 1

Guitar 1
e|---------------------------------------------------------------------------|
B|---------------------------------------------------------------------------|
G|--6----6/7-(7)---7h9-(9)---6/7----7-6--------------------------------------|
D|-----7---------7---------7------7------------------------------------------|
A|---------------------------------------------------------------------------|
E|---------------------------------------------------------------------------|

BACK TO CHORUS


Ending
With Chorus Pedal And Distortion
e|---------------------------------------------------------------------------|
B|--10-x-10-x-10-x-10-x-10101010-10-x-10-x-10-x-10-7777----------------------|
G|--9--x-9--x-9--x-9--x-9-9-9-9--9--x-9--x-9--x-9--7777----------------------|
D|--7--x-7--x-7--x-7--x-7-7-7-7--7--x-7--x-7--x-7--5555----------------------|
A|---------------------------------------------------------------------------|
E|---------------------------------------------------------------------------|



| /  slide up
| \  slide down
| h  hammer-on
| p  pull-off
| ~  vibrato
| +  harmonic
| x  Mute note
===============================================================================
comments
print report bad tab
3 comments total.
0 reply
jarretto wrote on May 12 2008, 02:10 am

good tab. i cant tell all the guitar parts. its a layer of sounds.

but the notes and riffs sound fairly right.

i cant really hear the chords in the chorus. but u probly know better than i do.

0 reply
joyous_pain1221 wrote on July 1 2008, 02:31 pm

There is delay in the chor. Those notes sound ok with delay

-1 reply
nmastah3 wrote on December 22 2010, 12:18 pm

good job man. most of this is right. however i was playing around with the song and i think the lead guitar in the verse should sound like
Guitar 2
e|---------------------------|
B|---------------------------|
G|--7-6---7-6----7-6----7-6--|
D|-7-----9------7------9-----|
A|---------------------------|
E|---------------------------|
(play along for correct rhythm)

I want to post or [tab]
guest
You may want to rate the tab now too:
select rating
Please do not post tabs as comments. Select "correction" instead!