Oops, an error
Loading. Please wait.

Call To Arms Tab

version 1
version 1

Whole song

Interactive

Video

18,898 views 6 this week
1 commentread comment
1 2 3 4 5
accurate
x 5
add to favorites
launch autoscroll
font size
0
reset
how to read this tab
guitar tuner
Tab Pro tools
  • play this tab
  • loop segment
  • change instrument
  • show fretboard
  • metronome
×
Best way to learn
"Call To Arms"
Autoscroll
slow
fast
+/-
esc
set tempo
stop
Contributor
Difficulty
novice
I Believe this is pretty much right
Im Positive the intro is right.


Intro Guitar 1(very very light distortion)

E|-------------------------------|
B|-------------------------------|
G|-------------------------------|
D|-------------------------------|
A|-11-11-11-7-7-----9--9--9-7-7--|
E|--0--0--0-0-0-----0--0--0-0-0--|

Intro guitar 2(distortion and delay)

E|-4---4--55---5-------------------|
B|---5---5---5---5--7-5---7-5------|
G|-----4---4---4---4-----4-----4---|
D|---------------------------------|
A|---------------------------------|
E|---------------------------------|

Verse

E|--------------------|
B|-5-5-5-5-7-7-7-4~---|
G|-4-4-4-4-4-4-4-4~---|
D|--------------------|
A|--------------------|
E|--------------------|

Chorus

E|--7---7---7---7----4--|
B|---5---5---5---5---5--|
G|-----4--4---4----4-4--|
D|----------------------|
A|----------------------|
E|----------------------|

E|--7---7---7---7----5--|
B|---5---5---5---5---5--|
G|-----4--4---4----4-4--|
D|----------------------|
A|----------------------|
E|----------------------|

Bridge(same as intro

E|-------------------------------|
B|-------------------------------|
G|-------------------------------|
D|-------------------------------|
A|-11-11-11-7-7-----9--9--9-7-7--|
E|--0--0--0-0-0-----0--0--0-0-0--|


E|-4---4--55---5-------------------|
B|---5---5---5---5--7-5---7-5------|
G|-----4---4---4---4-----4-----4---|
D|---------------------------------|
A|---------------------------------|
E|---------------------------------|

comments
print report bad tab
1 comment total.
0 reply
joyous_pain1221 wrote on February 9 2008, 09:42 am

Good, easy too.

I want to post or [tab]
guest
You may want to rate the tab now too:
select rating
Please do not post tabs as comments. Select "correction" instead!