Oops, an error
Loading. Please wait.

Call To Arms Bass Tab

version 2
version 2

Whole song

Interactive

2,230 views 3 this week
1 commentread comment
1 2 3 4 5
worth learning
x 3
add to favorites
launch autoscroll
font size
0
reset
guitar tuner
Tab Pro tools
  • play this tab
  • loop segment
  • change instrument
  • show fretboard
  • metronome
×
Best way to learn
"Call To Arms"
Autoscroll
slow
fast
+/-
esc
set tempo
stop
Difficulty
intermediate
Intro open E----0-0-0-0-0-0-0


--------------------------------|
--------------------------------|
-----------------44444444444444-|
-0000000000000000---------------| duration and then goes into

--------------------------------------------|
--------------------------------------------|
-2/777777777--7-----------------------------| let ring
----------------0----0----------------------| let ring

He Is Hitting An "E","A",C#,A

---------------------------------------------------------------------------|
---------------------------------------------------------------------------|
---------     00000000000000000000000000 4444444444444444 000000000000-----|
00000000000000-------------------------------------------------------------|

break ---------------------------------------------------|
---------------------------------------------------------|
------7/0------------------------------- slide down to 0-|
------------0--------------------------------------------| let ring out

no bass in verse 2 until half way through
verse-------------------

chorus
bridge
chorus

listen for timing on verse
thanks
comments
We did not receive enough feedback on this tab! Please rate:
print report bad tab
1 2 3 4 5
1 comment total.
0 reply
minniza wrote on April 14 2008, 03:41 pm

Is this the normal tunning?

I want to post or [tab]
guest
You may want to rate the tab now too:
select rating
Please do not post tabs as comments. Select "correction" instead!