Oops, an error
Loading. Please wait.

Call To Arms Tab

version 2
version 2

Whole song

Interactive

Video

24,245 views 12 this week
4 commentsread comments
1 2 3 4 5
accurate
x 8
add to favorites
launch autoscroll
font size
0
reset
how to read this tab
guitar tuner
Tab Pro tools
  • play this tab
  • loop segment
  • change instrument
  • show fretboard
  • metronome
Autoscroll
slow
fast
+/-
esc
set tempo
stop
Contributor
                               Call to Arms
                             Angels And Airwaves

Email: cvlmp1020@aol.com		
Tuning: Standard


-Intro Part One-


Rhythm Effect: Rhythm Figure 1
e|--5-0-0-0-5-0-0-0-4-0-0-0-4-0-0-0-2-0-0-0-2-0-0-0-0-0-0-0-2-0-0-0--|
b|-------------------------------------------------------------------|
g|-------------------------------------------------------------------|
d|-------------------------------------------------------------------|
a|-------------------------------------------------------------------|
E|-------------------------------------------------------------------|
				*played 2 times while fading in


-Intro Part Two-


Rhythm Effect: Rhythm Figure 1
		*played 8 times

Guitar 1: Rhythm Figure 2 (slight dist. w/ delay) 
e|--------------------------------------------------------|
b|--------------------------------------------------------|
g|--------------------------------------------------------|
d|--------------------------------------------------------|
a|--11-11-7-7------------------9-9-7-7--------------------|
E|--0--0—-0-0-0000000000000000-0-0-0-0-0000000000000000---|
               Pm------------|          Pm------------|
				*played 4 times

Guitar 2: Riff A (slight dist. w/ delay)
e|-------------------------------------------------------------------|
b|--5555555555555555555555555555555555555555555555555555555555555555-|
g|-------------------------------------------------------------------|
d|-------------------------------------------------------------------|
a|-------------------------------------------------------------------|
E|-------------------------------------------------------------------|
	*begins after Rhythm Figure 1 is played twice; play 1 time
                      all the way through and then continue into Riff B

Guitar 2: Riff B (slight dist. w/ delay)
e|--4--4--4--5--5--5--------------------------------------|
b|---5--5--5--4--4--4-7-7-5---7-7-5---7-7-5---7-7-5---5---|
g|----4--4-----4--4---------4-------4-------4-------4---4-|
d|--------------------------------------------------------|
a|--------------------------------------------------------|
E|--------------------------------------------------------|
			*played 4 times after Riff A

-Verse-


Rhythm Effect: Rhythm Figure 1
		*played 4 times


Guitar 1: Rhythm Figure 3 (slight dist. w/ delay)
e|--------------|
b|--------------|
g|--9-9---9-9---|
d|--9-9---9-9---|
a|--7-7---7-7---|
E|--0-0---0-0---|
		*played 4 times; played at the beginning of Rhythm	                
            Figure 4 each time played

Guitar 2: Rhythm Figure 4 (clean w/ delay)
e|--------------------------------------|
b|--5555555555555555/77777777\44444444--|
g|--------------------------------------|
d|--------------------------------------|
a|--------------------------------------|
E|--------------------------------------|
		*played 4 times


-Break-


Guitar 1: Rhythm Figure 3 (slight dist. w/ delay)
		*played 2 times; played at the beginning of Riff B each time
                 played

Guitar 2: Riff B (slight dist. w/ delay)
		*played 2 times


-Verse-


Rhythm Effect: Rhythm Figure 1
		*played 4 times

Guitar 1: Rhythm Figure 3 (slight dist. w/ delay)
           *played 4 times; played at the beginning of Rhythm	                
            Figure 4 each time played

Guitar 2: Rhythm Figure 4 (clean w/ delay)
		*played 4 times


-Chorus-


Guitar 1: does not play

Guitar 2: Rhythm Figure 5 (clean w/ delay)
e|--7--7--7--7---5--5--5--5---4--4--4--4---5--5--5--5-----|
b|---5--5--5--5—5-5--5--5--5-5-5--5--5--5-5-5--5--5--5-5--|
g|----4--4--4--4---4--4--4--4---4--4--4--4---4--4--5--5---|
d|--------------------------------------------------------|
a|--------------------------------------------------------|
E|--------------------------------------------------------|
		*played 2 times


-Break-


Rhythm Effect: Rhythm Figure 1
		*played 3 times

Guitar 1: Rhythm Figure 2 (slight dist. w/ delay) 
 		*begins after Rhythm Figure 1 is played once and is then
                 played 1 time


-Verse-


Rhythm Effect: Rhythm Figure 1
		*played 4 times

Guitar 1: Rhythm Figure 3 (slight dist. w/ delay)
     *begins after Rhythm Figure 1 is played twice; played at the    
      beginning of Rhythm Figure 4 each time played;
      played 2 times in all


Guitar 2: Rhythm Figure 4 (clean w/ delay)
		*played 2 times after Rhythm Figure 1 is played twice


-Chorus-


Guitar 1: does not play

Guitar 2: Rhythm Figure 5 (clean w/ delay)
		*played 4 times


-Break-


Rhythm Effect: Rhythm Figure 1
		*played 6 times

Guitar 1: Rhythm Figure 2 (slight dist. w/ delay) 
		*played 3 times

Guitar 2: Riff B (slight dist. w/ delay)
		*played 2 times after Rhythm Figure 1 is played four times


-Bridge- 


Guitar 1: does not play

Guitar 2: Rhythm Figure 5 (clean w/ delay)
		*played 2 times


-Chorus-


Guitar 1: does not play

Guitar 2: Rhythm Figure 5 (clean w/ delay)
		*played 2 times


-Outro-


Rhythm Effect: Rhythm Figure 1
		*played 3 – 4 times while fading out

Guitar 1: does not play

Guitar 2: Riff C (clean w/ delay)
e|--7-7-5-5--4-4-5-5--7-7-5-5--4-4-5-5--5--5-5--4-4-5-5---4----------|
b|--5-5-5-5--5-5-5-5--5-5-5-5--5-5-5-5--5-----------5---5------------|
g|-------------------------------------------------------------------|
d|-------------------------------------------------------------------|
a|-------------------------------------------------------------------|
E|-------------------------------------------------------------------|
		*played 1 time while fading out

comments
print report bad tab
4 comments total. Showing first comments.
0 reply
cheshirecat1 wrote on June 30 2008, 11:41 pm

this is a good tab and it is well thought out i look forward to finding other tabs of yours. One thing though try and separate guitar 2 and guitar 1 instead of mixing them up other than that its great

0 reply
atticus44 wrote on August 6 2008, 07:35 am

great tab!

0 reply
Jack67_LB wrote on December 28 2008, 10:28 am

Nice tab buddy. Kinda goofy form, but we can figure it out ;)

I want to post or [tab]
guest
You may want to rate the tab now too:
select rating
Please do not post tabs as comments. Select "correction" instead!