Oops, an error
Loading. Please wait.

Call To Arms Bass Tab

version 3
version 3

Whole song

Interactive

2,752 views 1 this week
no commentswrite comment
1 2 3 4 5
excellent!
x 4
add to favorites
launch autoscroll
font size
0
reset
guitar tuner
Tab Pro tools
  • play this tab
  • loop segment
  • change instrument
  • show fretboard
  • metronome
×
Best way to learn
"Call To Arms"
Autoscroll
slow
fast
+/-
esc
set tempo
stop
Contributor
Difficulty
novice
Song: Call To Arms by Angels and Airwaves
Tabbed By: creuther
Tuning: EADG

Note:
This song has a nice groove and the bass has a lot to do with it, but it's kinda hard to tab that groovy stuff out.
You won't be able to play this song only by reading this tab, you'll need to listen to the song and get a basic idea of what the bass does.
The slides (/ and \) and let-rings (~) are vital (in my opinion), thats why I tabbed them out so squeamishly.
You'll have to figure out for yourself how often to play each note.

UPDATE: After listening to the live version, I know this is a 100% correct. So enjoy!

PS: This is my first tab, so please forgive the probably unconventional writing ;)


Intro (wait for snare-drum)

G|:---3-times---:|-------------------------|
D|:-------------:|-------------------------|
A|:-------------:|-------------------------|
E|:-0~-0~-0~-0~-:|-0~-0~-0~-r-/12-12-12-12-|

1st Verse

G|------------------|------------------|
D|------------------|------------------|
A|------------------|------------------|
E|-0-0-0-0-/7-7-7-7-|-0-0-0-0-/7-7-7-7-|

G|------------------------|------------------|
D|------------------------|------------------|
A|------------------------|------------------|
E|-/12-12-12-12-12\-7-7-7-|-0-0-0-0-/7-7-7-7-|
                 ^
                 | This is not a mistake, play the 12s into the next half of the bar

Between verse 1 and 2

G|---------------------------------------------------------|
D|---------------------------------------------------------|
A|---------------------------------------------------------|
E|-/12-12-12-12\-0~-0~-0~-/12-12-12-12\-0~-0~-/12-12-12-12-|

2nd Verse (= 1st Verse)

Chorus

G|-----------------|-----------------|
D|-----------------|-----------------|
A|-----------------|-----------------|
E|-0-0-0-0-5-5-5-5-|-9-9-9-9-5-5-5-5-|

G|---------------------|-----------------|
D|---------------------|-----------------|
A|---------------------|-----------------|
E|-12-12-12-12-5-5-5-5-|-9-9-9-9-5-5-5-5-|

3rd Verse (right after chorus)

G|---------------------------------------------------|
D|---------------------------------------------------|
A|---------------------------------------------------|
E|-/12~--12\-0-wait-for-the-snare-again-/12-12-12-12-|

G|--------|--------|------------------------|------------------|
D|--------|--------|------------------------|------------------|
A|--------|--------|------------------------|------------------|
E|-0~--0~-|-0~--0~-|-/12-12-12-12-12\-7-7-7-|-0-0-0-0-/7-7-7-7-|

Chorus x2

Interlude (wait for reverby guitar)

G|----------------------------------|
D|----------------------------------|
A|----------------------------------|
E|-0~-0~-0~-0~-0~-0~-r-/12-12-12-12-|

Chorus x2

Outro

G|-----|
D|-----|
A|-----|
E|-12~-|
comments
print report bad tab
I want to post or [tab]
guest
You may want to rate the tab now too:
select rating
Please do not post tabs as comments. Select "correction" instead!