Oops, an error
Loading. Please wait.

Demise Tab

version 2
version 2

Whole song

1,395 views 1 this week
2 commentsread comments
1 2 3 4 5
accurate
x 4
add to favorites
launch autoscroll
font size
0
reset
how to read this tab
guitar tuner
Tab Pro tools
  • play this tab
  • loop segment
  • change instrument
  • show fretboard
  • metronome
×
Best way to learn
"Demise"
Autoscroll
slow
fast
+/-
esc
set tempo
stop
Contributor
Difficulty
intermediate
----------------------------------------------------------------------------
                        Demise - Angels and Airwaves
----------------------------------------------------------------------------
Tabbed by: KissMeImIrish23
Email: RyanDC23@hotmail.com

Im pretty sure this is pretty close. This is my first tabbing so if its totally wrong 
try not to go too hard on me.

/ = slide up
x = mute

Tuning: Standard(EADGBe)

e|---00-000---0-00-000---00-000---0-00-000---00-000---0-00-000---00-000---x-|
B|---00-000---0-00-000---00-000---0-00-000---00-000---0-00-000---00-000---x-|
G|---99-999---8-88-888---66-666---4-44-444---99-999---8-88-888---66-666---4-|
D|---99-999---9-99-999---66-666---4-44-444---99-999---9-99-999---66-666---4-|
A|---77-777---6-66-666---44-444---2-22-222---77-777---6-66-666---44-444---2-|
E|---00-000---0-00-000---00-000---0-00-000---00-000---0-00-000---00-000---x-|

xxx    xxx        xxx    xxx        xxx    xxx        xxx    xxx
-------------------------------------------------------------------|
-------------5-0---------------5-0---------------5-0---------------|
666-6--666-6------444-4--444-4------222-2--222-2------444-4--444-4-|
666-6--666-6------444-4--444-4------222-2--222-2------444-4--444-4-|
444-4--444-4------222-2--222-2------000-0--000-0------222-2--222-2-|
-------------------------------------------------------------------|

xxx    xxx        xxx    xxx        xxx    xxx        xxx    xxx
-------------------------------------------------------------------------|
-------------5-0---------------5-0---------------5-0---------------------|
666-6--666-6------444-4--444-4------222-2--222-2------444-4--444-4-4/6-6-|
666-6--666-6------444-4--444-4------222-2--222-2------444-4--444-4-4/6-6-|
444-4--444-4------222-2--222-2------000-0--000-0------222-2--222-2-2/4-4-|
-------------------------------------------------------------------------|

  xxxxxxxxxxxxxx     xxxxxxxxxxxxxx     xxxxxxxxxxxxxx     xxxxxxxxxxxxxx
-------------------------------------------------------------------------|
-------------------------------------------------------------------------|
6-66666666666666---2-22222222222222----------------------4-44444444444444|x2
6-66666666666666---2-22222222222222---2-22222222222222---4-44444444444444|
4-44444444444444---0-00000000000000---2-22222222222222---2-22222222222222|
--------------------------------------0-00000000000000-------------------|

-------------------------------|
-------------------------------|
6-4444-4444-4/6-4444-4444-9/11-|
6-4444-4444-4/6-4444-4444-x/x--|
4-2222-2222-2/4-2222-2222-7/9--|
-------------------------------|
-------------------------------|

  PPPPPPPPPPPPPP     PPPPPPPPPPPPPP     PPPPPPPPPPPPPP     PPPPPPPPPPPPPP
-------------------------------------------------------------------------|
-------------------------------------------------------------------------|
6-66666666666666---2-22222222222222----------------------4-44444444444444|x2
6-66666666666666---2-22222222222222---2-22222222222222---4-44444444444444|
4-44444444444444---0-00000000000000---2-22222222222222---2-22222222222222|
--------------------------------------0-00000000000000-------------------|

Cept on the 2nd time through on the last bit it's...
  xxxxxx
-----------------------------------------------|
-----------------------------------------------|
4-444444-4444444-2--222--222--222-2222--4-4444-|
4-444444-4444444-2--222--222--222-2222--4-4444-|
2-222222-2222222-0--000--000--000-0000--2-2222-|

----------------------------------------------------------------------|
----------------------------------------------------------------------|
6-6666-6-6666---2-2222---4-4444---6-6666-999-111111---2-2222---4-4444-|
6-6666-6-6666---2-2222---4-4444---6-6666-xxx-x x x ---2-2222---4-4444-|
4-4444-4-4444---0-0000---2-2222---4-4444-777-9 9 9 ---0-0000---2-2222-|
----------------------------------------------------------------------|

----------------------------------0000-0000-00---0000-0000-00---0000-0000-00-|
----------------------------------0000-0000-00---0000-0000-00---0000-0000-00-|
6-6666-6-6666---2-2222---4-4444---6666-6666-66---4444-4444-44---2222-2222-22-|
6-6666-6-6666---2-2222---4-4444---6666-6666-66---4444-4444-44---2222-2222-22-|
4-4444-4-4444---0-0000---2-2222---4444-4444-44---2222-2222-22---0000-0000-00-|
----------------------------------0000-0000-00---0000-0000-00---0000-0000-00-|

       x4 x2                                                     x4 x2
--0000---------0000-0000-00---0000-0000-00---0000-0000-00---0000--------0000-|
--0000---------0000-0000-00---0000-0000-00---0000-0000-00---0000--------0000-|
--4444-11-13---6666-6666-66---4444-4444-44---2222-2222-22---4444-11-13--6666-|
--4444-x--x----6666-6666-66---4444-4444-44---2222-2222-22---4444-x--x---6666-|
--2222-9--11---4444-4444-44---2222-2222-22---0000-0000-00---2222-9--11--4444-|
--0000---------0000-0000-00---0000-0000-00---0000-0000-00---0000--------0000-|

In the version of the song I have it just ends. So there you go.
============================================================================
comments
print report bad tab
2 comments total.
0 reply
italynlprkn wrote on March 21 2006, 06:26 pm

not angels and airwaves.

0 reply
Baker39 wrote on July 13 2008, 08:37 pm

this sounds pretty right for the most part. good work.

I want to post or [tab]
guest
You may want to rate the tab now too:
select rating
Please do not post tabs as comments. Select "correction" instead!