Oops, an error
Loading. Please wait.

Distraction Tab

version 1
version 1

Interactive

5,476 views 3 this week
3 commentsread comments
1 2 3 4 5
please rate
add to favorites
launch autoscroll
font size
0
reset
how to read this tab
guitar tuner
Tab Pro tools
  • play this tab
  • loop segment
  • change instrument
  • show fretboard
  • metronome
×
Best way to learn
"Distraction"
Autoscroll
slow
fast
+/-
esc
set tempo
stop
Difficulty
intermediate
“Distraction”
Angels and Airwaves


This is a pretty simple song to play. I tabbed out the 2 guitars for the intro but 
figure out the rhythm guitar part for the rest of the song.

Workin on it tho.


listen for timing in the intro.

Standard Tuning
Intro: really fast.

Guitar one. (fade in)
e| --8----|
g| -----8-|

Guitar two(fade in at 0:13) w/ delay

e|------------------------|
g|------------------------|
b|--------9--10--9--10----|
a|------------------------|
d|------------------------|
E|------------------------|
P.M. ………………..

Chorus:
Listen for timing and stumming patterns.

e|-------------------------------------|(X2)
g|-------------------------------------|
b|--9---7---9-5--9-7---7---9-10-9------|
a|-------------------------------------|
d|--7---5---7-3--7-5---5---7-8-7-------|
E|-------------------------------------|


Verse:
w/ delay (listen for timing)

e|----12------10-|
g|----13------13-|


Chorus:

Bridge:

e|-----8----8 (X16-|
g|-----8----8------|

Chorus (many times)

Intro: (fade out)

Tabbed by Matt Skripps.
(my first tab)
comments
We did not receive enough feedback on this tab! Please rate:
print report bad tab
1 2 3 4 5
3 comments total.
0 reply
italynlprkn wrote on April 20 2006, 07:27 pm

get the tunings right.

0 reply
Atticus.6 wrote on May 24 2006, 07:51 pm

lol...standard tuning is EBGDAE

0 reply
scrat-182 wrote on May 31 2006, 10:21 am

guitar 2 for the intro is nearly right but its this:

e-----------------------
b-----------------------
g--10-9-10-9-10p9-------
d------------------10---
a-----------------------
e-----------------------

this sounds better!
not a very good tab really! you need to put things down more clearly!
good try though!

I want to post or [tab]
guest
You may want to rate the tab now too:
select rating
Please do not post tabs as comments. Select "correction" instead!