Oops, an error
Loading. Please wait.

Distraction Tab

version 4
version 4

Interactive

1,234 views 3 this week
no commentswrite comment
1 2 3 4 5
accurate
x 3
add to favorites
launch autoscroll
font size
0
reset
how to read this tab
guitar tuner
Tab Pro tools
  • play this tab
  • loop segment
  • change instrument
  • show fretboard
  • metronome
Autoscroll
slow
fast
+/-
esc
set tempo
stop
Angels and Airwaves- Distraction

Standard

Intro (guitar 1)w/reverb and delay

-12-12-12-12-10-10-10-10-|
-13-13-13-13-13-13-13-13-|
-------------------------|
-------------------------|
-------------------------|
-------------------------|

(guitar 2)

-------------------------------------|
-------------------------------------|
-------------12----12----12----12----|
-14h15-14h15----14----14----14----14-|
-------------------------------------|
-------------------------------------|

Intro part 2 and Chorus (guitar 1 and 2)

-----------------------------------------------------------|
-----------------------------------------------------------|
-9-9-9-9--9/10-7-7-7-7--7-9/10-5-5-5-5--5/7-9/7-7-7/9-10/9-|
-x-x-x-x--x----x-x-x-x--x-x----x-x-x-x--x---x-x-x-x----x---|
-7-7-7-7--7/8--5-5-5-5--5-7/8--3-3-3-3--3/5-7/5-5-5/7--8/7-|
-----------------------------------------------------------|

verse (guitar 1) w/reverb and delay

-12-12-12-12-10-10-10-10-|
-13-13-13-13-13-13-13-13-|
-------------------------|
-------------------------|
-------------------------|
-------------------------|

Interlude (guitar 1)

----------------------------------------------------------|
----------------------------------------------------------|
-------12----12----12----12----------12----12----12----12-|
-12-14----14----14----14----14-14-12----12----12----12----|
----------------------------------------------------------|
----------------------------------------------------------|

----------------------------|
----------------------------|
-------12----12----12----12-|
-14-15----15----15----15----|
----------------------------|
----------------------------|

Outro (guitar 1)w/reverb and delay

-12-12-12-12-10-10-10-10-|
-13-13-13-13-13-13-13-13-|
-------------------------|
-------------------------|
-------------------------|
-------------------------|

(guitar 2)

-------------------------------------|
-------------------------------------|
-------------12----12----12----12----|
-14h15-14h15----14----14----14----14-|
-------------------------------------|
-------------------------------------|

played until fade out

Im pretty sure this is aboout 95% right. The interlude and the second guitar in the 
and outro im not sure of though

tabbed by conor
conormax16@yahoo.co.uk
comments
We did not receive enough feedback on this tab! Please rate:
print report bad tab
1 2 3 4 5
I want to post or [tab]
guest
You may want to rate the tab now too:
select rating
Please do not post tabs as comments. Select "correction" instead!