Oops, an error
Loading. Please wait.

Do It For Me Now Tab

version 1
version 1

Whole song

Interactive

12,599 views 12 this week
4 commentsread comments
1 2 3 4 5
accurate
x 4
add to favorites
launch autoscroll
font size
0
reset
how to read this tab
guitar tuner
Tab Pro tools
  • play this tab
  • loop segment
  • change instrument
  • show fretboard
  • metronome
×
Best way to learn
"Do It For Me Now"
Autoscroll
slow
fast
+/-
esc
set tempo
stop
Contributor
{COMPLETE GUITAR TAB WITH LYRICS}

Artist: Angels and Airwaves
Title : Do It for Me Now
Album : We Dont Need to Whisper

Tabbed by: Dj MoNkEy
E-mail   : dustin7up@gmail.com
Tuning: ½ Step Down {Eb,Ab,Db,Gb,Bb,eb}


August 27, 2006


{NOTE: I know this might not be 100% perfect,
       this is just how I play it. And it sounds
       good to me. Hope you like it!}






Intro:(00:00 - 00:12)
eb|-----------------------------------|
Bb|-----------------------------------|
Gb|-----------------------------------|
Db|--8-8-8-8-8---8-8---8-8---8-8---8--| {x4}
Ab|-----------------------------------|
Eb|-----------------------------------|
   pm . . . . . . . . . . . . . . . .



Intro part2:(00:13 - 00:36)
eb|-----------------------------------|
Bb|-----------------------------------|
Gb|-----------------------------------|
Db|--8-8-8-8-8---8-8---8-8---8-8---8--| {x8}
Ab|-----------------------------------|
Eb|-----------------------------------|
   pm . . . . . . . . . . . . . . . .

Guitar Two:
eb|------------------------------------------------|
Bb|------------------------------------------------|
Gb|------------------------------------------------|
Db|--12-12-12-12--12-12-12-12---10-10--12-12--8-8--| {x8}
Ab|------------------------------------------------|
Eb|------------------------------------------------|
   pm . . . . . . . . . . . . . . . . . . . . . . .



Verse 1:(00:37 - 01:01)
eb|--------------------------------------------------|
Bb|--------------------------------------------------|
Gb|--------------------------------------------------|
Db|--8-8-8-8-8----------------8-8---8-8---8-8---8----|
Ab|--------------------------------------------------|
Eb|--------------------------------------------------|
   pm . . . . . . . . . . . . . . . . . . . . . . . .
     I'm frightened at night, and the wind has a roar, It,

eb|--------------------------------------------------|
Bb|--------------------------------------------------|
Gb|--------------------------------------------------|
Db|--8-8-8-8-8---------------8-8---8-8---8-8---8-----|
Ab|--------------------------------------------------|
Eb|--------------------------------------------------|
   pm . . . . . . . . . . . . . . . . . . . . . . . .
     Seeps through the hall, and from under the door. Like the,

eb|--------------------------------------------------|
Bb|--------------------------------------------------|
Gb|--------------------------------------------------|
Db|--8-8-8-8-8------------------8-8---8-8---8-8---8--|
Ab|--------------------------------------------------|
Eb|--------------------------------------------------|
   pm . . . . . . . . . . . . . . . . . . . . . . . .
     Shit that was said. I can't take it that well.

eb|--------------------------------------------------|
Bb|--------------------------------------------------|
Gb|--------------------------------------------------|
Db|--8-8-8-8-8------------------8-8---8-8---8-8---8--|
Ab|--------------------------------------------------|
Eb|--------------------------------------------------|
   pm . . . . . . . . . . . . . . . . . . . . . . . .
     I give and, I give and, I give and, I give and, I'm still. Lost and,

eb|--------------------------------------------------|
Bb|--------------------------------------------------|
Gb|--------------------------------------------------|
Db|--8-8-8-8-8------------8-8---8-8---8-8---8--------|
Ab|--------------------------------------------------|
Eb|--------------------------------------------------|
   pm . . . . . . . . . . . . . . . . . . . . . . . .
     Hurt and bone thin from the love that's been starved.

eb|--------------------------------------------------|
Bb|--------------------------------------------------|
Gb|--------------------------------------------------|
Db|--8-8-8-8-8------------8-8---8-8---8-8---8--------|
Ab|--------------------------------------------------|
Eb|--------------------------------------------------|
   pm . . . . . . . . . . . . . . . . . . . . . . . .
     I know it got close, but I'm sure it's too far. From the,

eb|--------------------------------------------------|
Bb|--------------------------------------------------|
Gb|--------------------------------------------------|
Db|--8-8-8-8-8------------8-8---8-8---8-8---8--------|
Ab|--------------------------------------------------|
Eb|--------------------------------------------------|
   pm . . . . . . . . . . . . . . . . . . . . . . . .
     Point of suspense, We know it should be,

eb|--------------------------------------------------|
Bb|--------------------------------------------------|
Gb|--------------------------------------------------|
Db|--8-8-8-8-8------------8-8---8-8---8-8---8--------|
Ab|--------------------------------------------------|
Eb|--------------------------------------------------|
   pm . . . . . . . . . . . . . . . . . . . . . . . .
     The end of that part, of our favorite movie. When the,



Verse 1 part2:(01:02 - 01:26)
eb|--------------------------------------------------|
Bb|--------------------------------------------------|
Gb|--------------------------------------------------|
Db|--8-8-8-8-8------------------8-8---8-8---8-8---8--|
Ab|--------------------------------------------------|
Eb|--------------------------------------------------|
   pm . . . . . . . . . . . . . . . . . . . . . . . .

Guitar Two:
eb|--------------------------------------------------|
Bb|--------------------------------------------------|
Gb|--------------------------------------------------|
Db|--12-12-12-12--12-12-12-12---10-10--12-12--8-8----|
Ab|--------------------------------------------------|
Eb|--------------------------------------------------|
   pm . . . . . . . . . . . . . . . . . . . . . . . .
     Guy grabs the girl, and gives her his hand. Says,

eb|--------------------------------------------------|
Bb|--------------------------------------------------|
Gb|--------------------------------------------------|
Db|--8-8-8-8-8------------------8-8---8-8---8-8---8--|
Ab|--------------------------------------------------|
Eb|--------------------------------------------------|
   pm . . . . . . . . . . . . . . . . . . . . . . . .

eb|--------------------------------------------------|
Bb|--------------------------------------------------|
Gb|--------------------------------------------------|
Db|--12-12-12-12--12-12-12-12---10-10--12-12--8-8----|
Ab|--------------------------------------------------|
Eb|--------------------------------------------------|
   pm . . . . . . . . . . . . . . . . . . . . . . . .
     Take me away from this torturous land.	Cause the,

eb|--------------------------------------------------|
Bb|--------------------------------------------------|
Gb|--------------------------------------------------|
Db|--8-8-8-8-8------------------8-8---8-8---8-8---8--|
Ab|--------------------------------------------------|
Eb|--------------------------------------------------|
   pm . . . . . . . . . . . . . . . . . . . . . . . .

eb|--------------------------------------------------|
Bb|--------------------------------------------------|
Gb|--------------------------------------------------|
Db|--12-12-12-12--12-12-12-12---10-10--12-12--8-8----|
Ab|--------------------------------------------------|
Eb|--------------------------------------------------|
   pm . . . . . . . . . . . . . . . . . . . . . . . .
     Grave is set up, the hole that I dug.

eb|--------------------------------------------------|
Bb|--------------------------------------------------|
Gb|--------------------------------------------------|
Db|--8-8-8-8-8------------------8-8---8-8---8-8---8--|
Ab|--------------------------------------------------|
Eb|--------------------------------------------------|
   pm . . . . . . . . . . . . . . . . . . . . . . . .

eb|--------------------------------------------------|
Bb|--------------------------------------------------|
Gb|--------------------------------------------------|
Db|--12-12-12-12--12-12-12-12---10-10--12-12--8-8----|
Ab|--------------------------------------------------|
Eb|--------------------------------------------------|
   pm . . . . . . . . . . . . . . . . . . . . . . . .
     I gave and, I gave and, I gave and, I gave you my trust. Like the,

eb|--------------------------------------------------|
Bb|--------------------------------------------------|
Gb|--------------------------------------------------|
Db|--8-8-8-8-8------------------8-8---8-8---8-8---8--|
Ab|--------------------------------------------------|
Eb|--------------------------------------------------|
   pm . . . . . . . . . . . . . . . . . . . . . . . .

eb|--------------------------------------------------|
Bb|--------------------------------------------------|
Gb|--------------------------------------------------|
Db|--12-12-12-12--12-12-12-12---10-10--12-12--8-8----|
Ab|--------------------------------------------------|
Eb|--------------------------------------------------|
   pm . . . . . . . . . . . . . . . . . . . . . . . .
     Time that we kissed, and you gave me a lie.

eb|--------------------------------------------------|
Bb|--------------------------------------------------|
Gb|--------------------------------------------------|
Db|--8-8-8-8-8------------------8-8---8-8---8-8---8--|
Ab|--------------------------------------------------|
Eb|--------------------------------------------------|
   pm . . . . . . . . . . . . . . . . . . . . . . . .

eb|--------------------------------------------------|
Bb|--------------------------------------------------|
Gb|--------------------------------------------------|
Db|--12-12-12-12--12-12-12-12---10-10--12-12--8-8----|
Ab|--------------------------------------------------|
Eb|--------------------------------------------------|
   pm . . . . . . . . . . . . . . . . . . . . . . . .
     To add to the scene you pretended to cry. But I'm,

eb|--------------------------------------------------|
Bb|--------------------------------------------------|
Gb|--------------------------------------------------|
Db|--8-8-8-8-8------------------8-8---8-8---8-8---8--|
Ab|--------------------------------------------------|
Eb|--------------------------------------------------|
   pm . . . . . . . . . . . . . . . . . . . . . . . .

eb|--------------------------------------------------|
Bb|--------------------------------------------------|
Gb|--------------------------------------------------|
Db|--12-12-12-12--12-12-12-12---10-10--12-12--8-8----|
Ab|--------------------------------------------------|
Eb|--------------------------------------------------|
   pm . . . . . . . . . . . . . . . . . . . . . . . .
     Here and I'm cool, the way that it is.	Just,

eb|--------------------------------------------------|
Bb|--------------------------------------------------|
Gb|--------------------------------------------------|
Db|--8-8-8-8-8------------------8-8---8-8---8-8---8--|
Ab|--------------------------------------------------|
Eb|--------------------------------------------------|
   pm . . . . . . . . . . . . . . . . . . . . . . . .

eb|--------------------------------------------------|
Bb|--------------------------------------------------|
Gb|--------------------------------------------------|
Db|--12-12-12-12--12-12-12-12---10-10--12-12--8-8----|
Ab|--------------------------------------------------|
Eb|--------------------------------------------------|
   pm . . . . . . . . . . . . . . . . . . . . . . . .
     Give me a chance and I'll try to forgive. And,



Chorus:(01:27 - 01:51)
eb|-----------------------------------|
Bb|-----------------------------------|
Gb|-----------------------------------|
Db|--8-8-8-8-8---8-8---8-8---8-8---8--|
Ab|-----------------------------------|
Eb|-----------------------------------|
   pm . . . . . . . . . . . . . . . .

Guitar Two:
eb|-----------------------------|
Bb|-----------------------------|
Gb|--15-15-15-15---15-15-15-15--|
Db|--x--x--x--x----x--x--x--x---|
Ab|--13-13-13-13---13-13-13-13--|
Eb|-----------------------------|
     I don't 	 know.		And,

eb|-----------------------------------|
Bb|-----------------------------------|
Gb|-----------------------------------|
Db|--8-8-8-8-8---8-8---8-8---8-8---8--|
Ab|-----------------------------------|
Eb|-----------------------------------|
   pm . . . . . . . . . . . . . . . .

Guitar Two:
eb|-------------------------------------------|
Bb|-------------------------------------------|
Gb|--8-8--/--10-10-/--12-12--/---17-17-17-17--|
Db|--x-x--/--x--x--/--x--x---/---x--x--x--x---|
Ab|--6-6--/--8--8--/--10-10--/---15-15-15-15--|
Eb|-------------------------------------------|
     I	    can't    guess.	If it's gonna be,

eb|-----------------------------------|
Bb|-----------------------------------|
Gb|-----------------------------------|
Db|--8-8-8-8-8---8-8---8-8---8-8---8--|
Ab|-----------------------------------|
Eb|-----------------------------------|
   pm . . . . . . . . . . . . . . . .

Guitar Two:
eb|-----------------------------|
Bb|-----------------------------|
Gb|--15-15-15-15---15-15-15-15--|
Db|--x--x--x--x----x--x--x--x---|
Ab|--13-13-13-13---13-13-13-13--|
Eb|-----------------------------|
     Okay, but 	 now.		But,

eb|-----------------------------------|
Bb|-----------------------------------|
Gb|-----------------------------------|
Db|--8-8-8-8-8---8-8---8-8---8-8---8--|
Ab|-----------------------------------|
Eb|-----------------------------------|
   pm . . . . . . . . . . . . . . . .

Guitar Two:
eb|-------------------------------------------|
Bb|-------------------------------------------|
Gb|--8-8--/--10-10-/--12-12--/---17-17-17-17--|
Db|--x-x--/--x--x--/--x--x---/---x--x--x--x---|
Ab|--6-6--/--8--8--/--10-10--/---15-15-15-15--|
Eb|-------------------------------------------|
     My	    last     wish,	is that you do this with me.

eb|-----------------------------------|
Bb|-----------------------------------|
Gb|-----------------------------------|
Db|--8-8-8-8-8---8-8---8-8---8-8---8--|
Ab|-----------------------------------|
Eb|-----------------------------------|
   pm . . . . . . . . . . . . . . . .

Guitar Two:
eb|-----------------------------|
Bb|-----------------------------|
Gb|--15-15-15-15---15-15-15-15--|
Db|--x--x--x--x----x--x--x--x---|
Ab|--13-13-13-13---13-13-13-13--|
Eb|-----------------------------|
     Kiss me 	 here.		And,

eb|-----------------------------------|
Bb|-----------------------------------|
Gb|-----------------------------------|
Db|--8-8-8-8-8---8-8---8-8---8-8---8--|
Ab|-----------------------------------|
Eb|-----------------------------------|
   pm . . . . . . . . . . . . . . . .

Guitar Two:
eb|-------------------------------------------|
Bb|-------------------------------------------|
Gb|--8-8--/--10-10-/--12-12--/---17-17-17-17--|
Db|--x-x--/--x--x--/--x--x---/---x--x--x--x---|
Ab|--6-6--/--8--8--/--10-10--/---15-15-15-15--|
Eb|-------------------------------------------|
     Hold   my	     hand.	Let me feel like I'm the,

eb|-----------------------------------|
Bb|-----------------------------------|
Gb|-----------------------------------|
Db|--8-8-8-8-8---8-8---8-8---8-8---8--|
Ab|-----------------------------------|
Eb|-----------------------------------|
   pm . . . . . . . . . . . . . . . .

Guitar Two:
eb|-----------------------------|
Bb|-----------------------------|
Gb|--15-15-15-15---15-15-15-15--|
Db|--x--x--x--x----x--x--x--x---|
Ab|--13-13-13-13---13-13-13-13--|
Eb|-----------------------------|
     Only 	 one		I,

eb|-----------------------------------|
Bb|-----------------------------------|
Gb|-----------------------------------|
Db|--8-8-8-8-8---8-8---8-8---8-8---8--|
Ab|-----------------------------------|
Eb|-----------------------------------|
   pm . . . . . . . . . . . . . . . .

Guitar Two:
eb|-------------------------------------------|
Bb|-------------------------------------------|
Gb|--8-8--/--10-10-/--12-12--/---17-17-17-17--|
Db|--x-x--/--x--x--/--x--x---/---x--x--x--x---|
Ab|--6-6--/--8--8--/--10-10--/---15-15-15-15--|
Eb|-------------------------------------------|
     Know   you	     can.	Won't you do it for me now.



Chorus part2:(01:52 - 02:16)
eb|-----------------------------------|
Bb|-----------------------------------|
Gb|-----------------------------------|
Db|--8-8-8-8-8---8-8---8-8---8-8---8--| {x8}
Ab|-----------------------------------|
Eb|-----------------------------------|
   pm . . . . . . . . . . . . . . . .

Guitar Two:
eb|------------------------------------------------|
Bb|------------------------------------------------|
Gb|------------------------------------------------|
Db|--12-12-12-12--12-12-12-12---10-10--12-12--8-8--| {x8}
Ab|------------------------------------------------|
Eb|------------------------------------------------|
   pm . . . . . . . . . . . . . . . . . . . . . . .
     Now, Now,	Now,	Now,	Now,	Now...



Verse 2:(02:17 - 02:41)
eb|--------------------------------------------------|
Bb|--------------------------------------------------|
Gb|--------------------------------------------------|
Db|--8-8-8-8-8------------8-8---8-8---8-8---8--------|
Ab|--------------------------------------------------|
Eb|--------------------------------------------------|
   pm . . . . . . . . . . . . . . . . . . . . . . . .
     I've really had it with the rain of the tears. The,

eb|--------------------------------------------------|
Bb|--------------------------------------------------|
Gb|--------------------------------------------------|
Db|--8-8-8-8-8------------------8-8---8-8---8-8---8--|
Ab|--------------------------------------------------|
Eb|--------------------------------------------------|
   pm . . . . . . . . . . . . . . . . . . . . . . . .
     Predictable storm that has come every year. And it,

eb|--------------------------------------------------|
Bb|--------------------------------------------------|
Gb|--------------------------------------------------|
Db|--8-8-8-8-8------------------8-8---8-8---8-8---8--|
Ab|--------------------------------------------------|
Eb|--------------------------------------------------|
   pm . . . . . . . . . . . . . . . . . . . . . . . .
     Sneaks in from shore with a bat in its hand.

eb|--------------------------------------------------|
Bb|--------------------------------------------------|
Gb|--------------------------------------------------|
Db|--8-8-8-8-8------------------8-8---8-8---8-8---8--|
Ab|--------------------------------------------------|
Eb|--------------------------------------------------|
   pm . . . . . . . . . . . . . . . . . . . . . . . .
     I'm trying, I'm trying, I'm trying, I'm trying, I can't. You're a,

eb|--------------------------------------------------|
Bb|--------------------------------------------------|
Gb|--------------------------------------------------|
Db|--8-8-8-8-8------------8-8---8-8---8-8---8--------|
Ab|--------------------------------------------------|
Eb|--------------------------------------------------|
   pm . . . . . . . . . . . . . . . . . . . . . . . .
     Thief and a witch but I love you to death. You,

eb|--------------------------------------------------|
Bb|--------------------------------------------------|
Gb|--------------------------------------------------|
Db|--8-8-8-8-8------------8-8---8-8---8-8---8--------|
Ab|--------------------------------------------------|
Eb|--------------------------------------------------|
   pm . . . . . . . . . . . . . . . . . . . . . . . .
     Steal my heart and curse under your breath. But the,

eb|--------------------------------------------------|
Bb|--------------------------------------------------|
Gb|--------------------------------------------------|
Db|--8-8-8-8-8------------8-8---8-8---8-8---8--------|
Ab|--------------------------------------------------|
Eb|--------------------------------------------------|
   pm . . . . . . . . . . . . . . . . . . . . . . . .
     One thing that I can most willing prove. That,

eb|--------------------------------------------------|
Bb|--------------------------------------------------|
Gb|--------------------------------------------------|
Db|--8-8-8-8-8------------8-8---8-8---8-8---8--------|
Ab|--------------------------------------------------|
Eb|--------------------------------------------------|
   pm . . . . . . . . . . . . . . . . . . . . . . . .
     When you are gone I'll be fine without you. And,



Chorus:(02:42 - 03:05)
eb|-----------------------------------|
Bb|-----------------------------------|
Gb|-----------------------------------|
Db|-----TABBED-----ABOVE-----^^^------|
Ab|-----------------------------------|
Eb|-----------------------------------|



Chorus part2:(03:06 - 03:18)
eb|-----------------------------------|
Bb|-----------------------------------|
Gb|-----------------------------------|
Db|--8-8-8-8-8---8-8---8-8---8-8---8--| {x4}
Ab|-----------------------------------|
Eb|-----------------------------------|
   pm . . . . . . . . . . . . . . . .
     Now, Now,	Now,	Now,	Now...



Bridge:(03:19 - 03:30)
eb|------------------------------------------------------------------------------|
Bb|------------------------------------------------------------------------------|
Gb|------------------------------------------------------------------------------|
Db|------8-8-8-8-8---8-8---8-8---8-8---8--------8-8-8-8-8---8-8---8-8---8-8---8--|
Ab|------------------------------------------------------------------------------|
Eb|------------------------------------------------------------------------------|
   pm . . . . . . . . . . . . . . . . . . . . . . . . . . . . . . . . . . . . . .
Now just hold on,    hold  on    to    meeeeeeeeeeeeeeeeeeeeeeeeeeeeeeeeeeeeeeee.

eb|------------------------------------------------------------------------------|
Bb|------------------------------------------------------------------------------|
Gb|------------------------------------------------------------------------------|
Db|------8-8-8-8-8---8-8---8-8---8-8---8--------8-8-8-8-8---8-8---8-8---8-8---8--|
Ab|------------------------------------------------------------------------------|
Eb|------------------------------------------------------------------------------|
   pm . . . . . . . . . . . . . . . . . . . . . . . . . . . . . . . . . . . . . .
	Hold on,    hold  on    to    meeeeeeeeeeeeeeeee...(Hold  on    to    me.)



Outro:(03:31 - 04:20)
eb|------------------------------------------------------------------------------|
Bb|------------------------------------------------------------------------------|
Gb|------------------------------------------------------------------------------|
Db|------8-8-8-8-8---8-8---8-8---8-8---8--------8-8-8-8-8---8-8---8-8---8-8---8--| {x8}
Ab|------------------------------------------------------------------------------|
Eb|------------------------------------------------------------------------------|
   pm . . . . . . . . . . . . . . . . . . . . . . . . . . . . . . . . . . . . . .
	 Hold on,    hold  on    to   meeeeeeeeeeeeeeeee...(Hold  on    to    me.)

Guitar Two:
eb|------------------------------------------------|
Bb|------------------------------------------------|
Gb|------------------------------------------------|
Db|--12-12-12-12--12-12-12-12---10-10--12-12--8-8--| {x16}
Ab|------------------------------------------------|
Eb|------------------------------------------------|
   pm . . . . . . . . . . . . . . . . . . . . . . .





comments
print report bad tab
4 comments total. Showing first comments.
0 reply
BlinkDay182 wrote on August 28 2006, 12:52 pm

wrong tuning, it's played in standard

0 reply
dm_rick wrote on October 16 2006, 07:41 pm

yeah did you really have to put it a half step down?

0 reply
valkyrieMISSILE wrote on January 15 2007, 10:10 pm

Unaccurate

I want to post or [tab]
guest
You may want to rate the tab now too:
select rating
Please do not post tabs as comments. Select "correction" instead!