Oops, an error
Loading. Please wait.

Do It For Me Now Bass Tab

version 2
version 2

Whole song

Interactive

4,531 views 3 this week
no commentswrite comment
1 2 3 4 5
accurate
x 9
add to favorites
launch autoscroll
font size
0
reset
guitar tuner
Tab Pro tools
  • play this tab
  • loop segment
  • change instrument
  • show fretboard
  • metronome
×
Best way to learn
"Do It For Me Now"
Autoscroll
slow
fast
+/-
esc
set tempo
stop
Contributor
Difficulty
intermediate
g|------------------------||   Intro||x2
d|----------------------------------||
a|------------5(x20)----------------||
e|5(x20)-4(x20)-------4(x20---------||

g|----------------------------------||   verse||x2
d|--------------------------------------------||
a|----------------4/5-5(x20)------------------||
e|5(x20)5/2-2(x20)-----------4/5-4(x20--------||

g|-----------------------------|| chorus||x2
d|--------------------------------------||
a|-------5(x20)-------------------------||
e|-2(x20)-------5(x20)-4(x20)-----------||

g|----------------------|| interlude Until End
d|----------------------||
a|----------------------||
e|-5(x20)-7(x4)-10(x20)-||
comments
print report bad tab
I want to post or [tab]
guest
You may want to rate the tab now too:
select rating
Please do not post tabs as comments. Select "correction" instead!