Oops, an error
Loading. Please wait.

Do It For Me Now Tab

version 2
version 2

Whole song

Interactive

17,123 views 6 this week
5 commentsread comments
1 2 3 4 5
accurate
x 10
add to favorites
launch autoscroll
font size
0
reset
how to read this tab
guitar tuner
Tab Pro tools
  • play this tab
  • loop segment
  • change instrument
  • show fretboard
  • metronome
×
Best way to learn
"Do It For Me Now"
Autoscroll
slow
fast
+/-
esc
set tempo
stop
Contributor
Difficulty
novice
DO IT FOR ME NOW - Angels and Airwaves

Tabbed by: Byron Andrada
Email: spank_ie05@yahoo.com

This is how our band play this song.. It's kinda simple!
Just listen carefully to the song and try to play with it...
It's a good song! enjoi.... BASELINE DRIVE!!! cheers!!!

INTRO:

GUITAR 1:  using Delay
E|--------------------------------------------------|
B|--------------------------------------------------|
G|--------------------------------------------------|
D|-----8-8x-8-8x-8-8x-8x-8-8------------------------|
A|--------------------------------------------------|
E|--------------------------------------------------|

GUITAR 2:  using Delay 
E|--------------------------------------------------|
B|--------------------------------------------------|
G|--------------------------------------------------|
D|-----10x1010x1010---9x99x99-----------------------|3x
A|--------------------------------------------------|
E|--------------------------------------------------|
       pm.......................

E|--------------------------------------------------|
B|--------------------------------------------------|
G|--------------------------------------------------|
D|-----10x1010x1010---9x99x99---7x77x77-------------|
A|--------------------------------------------------|
E|--------------------------------------------------|


VERSES 1 AND 2:

GUITAR 1:  using Delay
E|--------------------------------------------------|
B|--------------------------------------------------|
G|--------------------------------------------------|
D|-----8-8x-8-8x-8-8x-8x-8-8------------------------|
A|--------------------------------------------------|
E|--------------------------------------------------|

GUITAR 2:  using Delay 
E|--------------------------------------------------|
B|--------------------------------------------------|
G|--------------------------------------------------|
D|-----10x1010x1010---9x99x99-----------------------|3x
A|--------------------------------------------------|
E|--------------------------------------------------|
       pm.......................

E|--------------------------------------------------|
B|--------------------------------------------------|
G|--------------------------------------------------|
D|-----10x1010x1010---9x99x99---7x77x77-------------|
A|--------------------------------------------------|
E|--------------------------------------------------|


CHORUS:

Guitar 1:  using clean tone

E|-----2------0---------------------------------|
B|-----2------3--------0-------0----------------|
G|-----2------2--------2-------1----------------|2x
D|-----4------0--------2-------2----------------|
A|-----4---------------0-------2----------------|
E|-----2-----------------------0----------------|

GUitar 2:  using clean tone

E|-----------------------------------------------|
B|------------------12-10------------12-10-------|
G|------------6-7-9------------6-7-9-------------|2x
D|-----------------------------------------------|
A|-----------------------------------------------|
E|-----------------------------------------------|


[REPEAT INTRO]


VERSE 3:

GUITAR 1: using Delay
E|--------------------------------------------------|
B|--------------------------------------------------|
G|--------------------------------------------------|
D|-----8-8x-8-8x-8-8x-8x-8-8------------------------|
A|--------------------------------------------------|
E|--------------------------------------------------|


[REPEAT CHORUS]


ADLIB:

GUITAR 1:  using Delay
E|--------------------------------------------------|
B|--------------------------------------------------|
G|--------------------------------------------------|
D|-----8-8x-8-8x-8-8x-8x-8-8------------------------|
A|--------------------------------------------------|
E|--------------------------------------------------|

GUITAR 2:  using clean tone

E|-----9-5-7-9-5-7-9-5-7-9-5------------------------|
B|--------------------------------------------------|
G|--------------------------------------------------|4X
D|--------------------------------------------------|
A|--------------------------------------------------|
E|--------------------------------------------------|


OUTRO: Now just hold on.....

GUITAR 1:  using Delay
E|--------------------------------------------------|
B|--------------------------------------------------|
G|--------------------------------------------------|
D|-----8-8x-8-8x-8-8x-8x-8-8------------------------|
A|--------------------------------------------------|
E|--------------------------------------------------|

GUITAR 2:  using Delay 
E|--------------------------------------------------|
B|--------------------------------------------------|
G|--------------------------------------------------|
D|-----10x1010x1010---9x99x99-----------------------|
A|--------------------------------------------------|
E|--------------------------------------------------|
       pm.......................

E|--------------------------------------------------|
B|--------------------------------------------------|
G|--------------------------------------------------|
D|-----10x1010x1010---9x99x99---7x77x77-------------|
A|--------------------------------------------------|
E|--------------------------------------------------|








comments
print report bad tab
5 comments total. Showing first comments.
+2 reply
spank_ie05 wrote on July 3 2007, 02:13 am

hey guys this is a correction to my tab.. i'm sorry for the typographical error... all the 8's in guitar 1 will be 7.. enjoy!

GUITAR 1: using Delay
E|--------------------------------------------------|
B|--------------------------------------------------|
G|--------------------------------------------------|
D|-----7-7x-7-7x-7-7x-7x-7-7------------------------|
A|--------------------------------------------------|
E|--------------------------------------------------|

0 reply
Greg_2390 wrote on September 8 2007, 02:43 pm

one guitar in the song. the rest are effects. download the live version of the song.

+1 reply
IPlayGeetar523 wrote on December 18 2008, 11:19 am

how are those notes in the beginning even playable together. theyre all like 1 fret apart. there is no harmony in the beginning. its a simple rhythm on that little synth, and the palm muting is more complex. sorry dude

I want to post or [tab]
guest
You may want to rate the tab now too:
select rating
Please do not post tabs as comments. Select "correction" instead!