Oops, an error
Loading. Please wait.

Do It For Me Now Bass Tab

version 3
version 3

Whole song

Interactive

695 views 9 this week
no commentswrite comment
1 2 3 4 5
accurate
x 1
add to favorites
launch autoscroll
font size
0
reset
guitar tuner
Tab Pro tools
  • play this tab
  • loop segment
  • change instrument
  • show fretboard
  • metronome
Autoscroll
slow
fast
+/-
esc
set tempo
stop
Contributor
-------------------------------------------------------------------------------
			     DO IT FOR ME NOW - Angels & Airwaves
-------------------------------------------------------------------------------

Tabbed By : n00bzilla99
Tuning:  Standard

I know that there are 2 other tabs out there, and this is an old tab, but they do not 
play the correct order, nor the right number of notes in my opinion so I gave it a listen 
and here is what I got.

Intro (0:12)
G|--------------------------------------------------|
D|--------------------------------------------------|
A|-----------------------5(x32)---------------------|
E|-----5(x32)/2(x32)----------------4(x32)----------|

Verse (0:38)
G|--------------------------------------------------|
D|--------------------------------------------------|
A|-----------------------5(x32)---------------------| x2
E|-----4(x32)---2(x32)--------------5(x32)----------|

Chorus (1:27)
G|--------------------------------------------------|
D|--------------------------------------------------|
A|--------------5(x16)------------------------------| x2
E|-----2(x16)------------5(x16)-----4(x16)----------|

Repeat Verse (1:52)
Repeat Chorus (2:42)

Interlude (3:06 - 3:19)
G|--------------------------------------------------|
D|--------------------------------------------------|
A|----------------------5(x32)----------------------|
E|------5(x32)--------------------------------------|

Outro (3:19)
G|-------------------------------------------|
D|-------------------------------------------|
A|-------------------------------------------|
E|------5(x16)------7(x4)------10(x16)-------| Repeat until End

End (4:22)
G|-----|
D|-----|
A|-----|
E|--5--|


As always, listen for the timing! :D  Please rate, I believe this is 100% correct!

| /  slide up
| \  slide down
| h  hammer-on
| p  pull-off
| ~  vibrato
| +  harmonic
| x  Mute note
===============================================================================
comments
We did not receive enough feedback on this tab! Please rate:
print report bad tab
1 2 3 4 5
I want to post or [tab]
guest
You may want to rate the tab now too:
select rating
Please do not post tabs as comments. Select "correction" instead!