Oops, an error
Loading. Please wait.

Do It For Me Now Tab

version 3
version 3

Whole song

Interactive

2,956 views 1 this week
1 commentread comment
1 2 3 4 5
please rate
add to favorites
launch autoscroll
font size
0
reset
how to read this tab
guitar tuner
Tab Pro tools
  • play this tab
  • loop segment
  • change instrument
  • show fretboard
  • metronome
×
Best way to learn
"Do It For Me Now"
Autoscroll
slow
fast
+/-
esc
set tempo
stop
Contributor
-------------------------------------------------------------------------------
                       Do It For Me Now - Angels & Airwaves
-------------------------------------------------------------------------------
Tabbed by: kevlarmusicmojo


Tuning: Standard

Basically, from what I can hear from the song, there are only two guitar parts and the 
morse code part is synth. So here goes.

Effects: Probably some Chorus, Delay and Reverb. You decide.


Riff 1:

(Play Palm Muted 16th Notes)

e|---------------------------------------------------------------------------|
B|---------------------------------------------------------------------------|
G|---------------------------------------------------------------------------|
D|-11-11-11-11-9-9-11-11-7-7-7-7-7-7-7-7-7-----------------------------------|
A|---------------------------------------------------------------------------|
E|---------------------------------------------------------------------------|
   .  .  .  .  . . .  .  . . . . . . . . .

Riff 2:

e|------------------------------------------------------------------------------|
B|-10~------------12~-----------------------------------------------------------|
G|--------------9---------------------------------------------------------------|
D|--------11-12-----------------------------------------------------------------|
A|------------------------------------------------------------------------------|
E|------------------------------------------------------------------------------|

Play this 4x per chorus


That's really it.  Play Riff 1 in the intro after the drums come in, the verses, and at 
end where, "Just hold on, hold on to me," is repeated.

Play Riff 2 on all of the choruses and you should be good to go.

| /  slide up
| \  slide down
| h  hammer-on
| p  pull-off
| ~  vibrato
| +  harmonic
| x  Mute note
===============================================================================
comments
We did not receive enough feedback on this tab! Please rate:
print report bad tab
1 2 3 4 5
1 comment total.
0 reply
alexv182 wrote on May 25 2014, 06:25 am, edited on July 24 2014, 05:21 am

Cool, but I think it sounds more like that:
D|-----11-11-11-11-9-7-9-9-9-11-9-7-7-77777-77777----------|
A|-0-0------------------------------------------------------------------------|

I want to post or [tab]
guest
You may want to rate the tab now too:
select rating
Please do not post tabs as comments. Select "correction" instead!